ISO-10303-21;
HEADER;
FILE_DESCRIPTION (( 'STEP AP203' ),
    '1' );
FILE_NAME ('Web Model 19730_19735.step',
    '2022-03-22T14:58:32',
    ( '' ),
    ( '' ),
    'SwSTEP 2.0',
    'SolidWorks 2021',
    '' );
FILE_SCHEMA (( 'CONFIG_CONTROL_DESIGN' ));
ENDSEC;

DATA;
#1 = PERSON_AND_ORGANIZATION ( #133, #36 ) ;
#2 = DIRECTION ( 'NONE',  ( 0.000000000000000000, 0.000000000000000000, 1.000000000000000000 ) ) ;
#3 = CYLINDRICAL_SURFACE ( 'NONE', #59, 25.00000000000000000 ) ;
#4 = VECTOR ( 'NONE', #146, 1000.000000000000000 ) ;
#5 = LOCAL_TIME ( 10, 58, 32.00000000000000000, #141 ) ;
#6 = APPROVAL_DATE_TIME ( #46, #124 ) ;
#7 = CC_DESIGN_DATE_AND_TIME_ASSIGNMENT ( #156, #86, ( #167 ) ) ;
#8 = AXIS2_PLACEMENT_3D ( 'NONE', #163, #29, #51 ) ;
#9 = DIRECTION ( 'NONE',  ( 1.000000000000000000, 0.000000000000000000, 0.000000000000000000 ) ) ;
#10 = LINE ( 'NONE', #157, #88 ) ;
#11 = AXIS2_PLACEMENT_3D ( 'NONE', #37, #148, #62 ) ;
#12 =( GEOMETRIC_REPRESENTATION_CONTEXT ( 3 ) GLOBAL_UNCERTAINTY_ASSIGNED_CONTEXT ( ( #72 ) ) GLOBAL_UNIT_ASSIGNED_CONTEXT ( ( #65, #119, #108 ) ) REPRESENTATION_CONTEXT ( 'NONE', 'WORKASPACE' ) );
#13 = FACE_OUTER_BOUND ( 'NONE', #25, .T. ) ;
#14 = PRODUCT_RELATED_PRODUCT_CATEGORY ( 'detail', '', ( #112 ) ) ;
#15 = DATE_AND_TIME ( #82, #90 ) ;
#16 = DIRECTION ( 'NONE',  ( -1.000000000000000000, 0.000000000000000000, 0.000000000000000000 ) ) ;
#17 = FACE_OUTER_BOUND ( 'NONE', #76, .T. ) ;
#18 = DIRECTION ( 'NONE',  ( -0.000000000000000000, -0.000000000000000000, -1.000000000000000000 ) ) ;
#19 = AXIS2_PLACEMENT_3D ( 'NONE', #56, #151, #97 ) ;
#20 = APPROVAL_DATE_TIME ( #99, #154 ) ;
#21 = APPROVAL_PERSON_ORGANIZATION ( #126, #124, #57 ) ;
#22 = PERSON_AND_ORGANIZATION_ROLE ( 'creator' ) ;
#23 = ADVANCED_FACE ( 'NONE', ( #75 ), #40, .T. ) ;
#24 = VERTEX_POINT ( 'NONE', #50 ) ;
#25 = EDGE_LOOP ( 'NONE', ( #41, #158 ) ) ;
#26 = CARTESIAN_POINT ( 'NONE',  ( 0.000000000000000000, 0.000000000000000000, 0.000000000000000000 ) ) ;
#27 = EDGE_CURVE ( 'NONE', #170, #24, #70, .T. ) ;
#28 = DIRECTION ( 'NONE',  ( 0.000000000000000000, 0.000000000000000000, 1.000000000000000000 ) ) ;
#29 = DIRECTION ( 'NONE',  ( 0.000000000000000000, 0.000000000000000000, 1.000000000000000000 ) ) ;
#30 = CARTESIAN_POINT ( 'NONE',  ( 25.00000000000000000, 3.061616997868383043E-15, 3.000000000000000000 ) ) ;
#31 = COORDINATED_UNIVERSAL_TIME_OFFSET ( 5, 0, .BEHIND. ) ;
#32 = EDGE_CURVE ( 'NONE', #115, #170, #10, .T. ) ;
#33 = COORDINATED_UNIVERSAL_TIME_OFFSET ( 5, 0, .BEHIND. ) ;
#34 = APPROVAL_ROLE ( '' ) ;
#35 = DESIGN_CONTEXT ( 'detailed design', #169, 'design' ) ;
#36 = ORGANIZATION ( 'UNSPECIFIED', 'UNSPECIFIED', '' ) ;
#37 = CARTESIAN_POINT ( 'NONE',  ( 0.000000000000000000, 0.000000000000000000, 0.000000000000000000 ) ) ;
#38 = ORIENTED_EDGE ( 'NONE', *, *, #27, .T. ) ;
#39 = ADVANCED_FACE ( 'NONE', ( #13 ), #92, .F. ) ;
#40 = PLANE ( 'NONE',  #172 ) ;
#41 = ORIENTED_EDGE ( 'NONE', *, *, #27, .F. ) ;
#42 = CARTESIAN_POINT ( 'NONE',  ( 0.000000000000000000, 0.000000000000000000, 0.000000000000000000 ) ) ;
#43 = DATE_AND_TIME ( #52, #48 ) ;
#44 = APPROVAL_STATUS ( 'not_yet_approved' ) ;
#45 = CC_DESIGN_PERSON_AND_ORGANIZATION_ASSIGNMENT ( #73, #89, ( #55 ) ) ;
#46 = DATE_AND_TIME ( #71, #101 ) ;
#47 = AXIS2_PLACEMENT_3D ( 'NONE', #42, #28, #123 ) ;
#48 = LOCAL_TIME ( 10, 58, 32.00000000000000000, #63 ) ;
#49 = ORIENTED_EDGE ( 'NONE', *, *, #164, .T. ) ;
#50 = CARTESIAN_POINT ( 'NONE',  ( 25.00000000000000000, 3.061616997868383043E-15, 0.000000000000000000 ) ) ;
#51 = DIRECTION ( 'NONE',  ( 1.000000000000000000, 0.000000000000000000, 0.000000000000000000 ) ) ;
#52 = CALENDAR_DATE ( 2022, 22, 3 ) ;
#53 = EDGE_CURVE ( 'NONE', #118, #24, #61, .T. ) ;
#54 = DIRECTION ( 'NONE',  ( 1.000000000000000000, 0.000000000000000000, 0.000000000000000000 ) ) ;
#55 = PRODUCT_DEFINITION_FORMATION_WITH_SPECIFIED_SOURCE ( 'ANY', '', #112, .NOT_KNOWN. ) ;
#56 = CARTESIAN_POINT ( 'NONE',  ( 0.000000000000000000, 0.000000000000000000, 3.000000000000000000 ) ) ;
#57 = APPROVAL_ROLE ( '' ) ;
#58 = MANIFOLD_SOLID_BREP ( 'Boss-Extrude1', #152 ) ;
#59 = AXIS2_PLACEMENT_3D ( 'NONE', #121, #18, #16 ) ;
#60 = CC_DESIGN_PERSON_AND_ORGANIZATION_ASSIGNMENT ( #168, #110, ( #167 ) ) ;
#61 = LINE ( 'NONE', #134, #4 ) ;
#62 = DIRECTION ( 'NONE',  ( 1.000000000000000000, 0.000000000000000000, -0.000000000000000000 ) ) ;
#63 = COORDINATED_UNIVERSAL_TIME_OFFSET ( 5, 0, .BEHIND. ) ;
#64 = APPROVAL_ROLE ( '' ) ;
#65 =( LENGTH_UNIT ( ) NAMED_UNIT ( * ) SI_UNIT ( .MILLI., .METRE. ) );
#66 = ADVANCED_BREP_SHAPE_REPRESENTATION ( 'Web Model 19730_19735', ( #58, #47 ), #12 ) ;
#67 = CYLINDRICAL_SURFACE ( 'NONE', #19, 25.00000000000000000 ) ;
#68 = CC_DESIGN_SECURITY_CLASSIFICATION ( #167, ( #55 ) ) ;
#69 = CALENDAR_DATE ( 2022, 22, 3 ) ;
#70 = CIRCLE ( 'NONE', #144, 25.00000000000000000 ) ;
#71 = CALENDAR_DATE ( 2022, 22, 3 ) ;
#72 = UNCERTAINTY_MEASURE_WITH_UNIT (LENGTH_MEASURE( 1.000000000000000082E-05 ), #65, 'distance_accuracy_value', 'NONE');
#73 = PERSON_AND_ORGANIZATION ( #133, #36 ) ;
#74 = CC_DESIGN_PERSON_AND_ORGANIZATION_ASSIGNMENT ( #1, #81, ( #131 ) ) ;
#75 = FACE_OUTER_BOUND ( 'NONE', #77, .T. ) ;
#76 = EDGE_LOOP ( 'NONE', ( #171, #104, #130, #78 ) ) ;
#77 = EDGE_LOOP ( 'NONE', ( #103, #49 ) ) ;
#78 = ORIENTED_EDGE ( 'NONE', *, *, #32, .F. ) ;
#79 = APPROVAL_PERSON_ORGANIZATION ( #98, #154, #34 ) ;
#80 = APPLICATION_PROTOCOL_DEFINITION ( 'international standard', 'config_control_design', 1994, #169 ) ;
#81 = PERSON_AND_ORGANIZATION_ROLE ( 'creator' ) ;
#82 = CALENDAR_DATE ( 2022, 22, 3 ) ;
#83 = CIRCLE ( 'NONE', #8, 25.00000000000000000 ) ;
#84 = PERSON_AND_ORGANIZATION ( #133, #36 ) ;
#85 = COORDINATED_UNIVERSAL_TIME_OFFSET ( 5, 0, .BEHIND. ) ;
#86 = DATE_TIME_ROLE ( 'classification_date' ) ;
#87 = CC_DESIGN_DATE_AND_TIME_ASSIGNMENT ( #43, #165, ( #131 ) ) ;
#88 = VECTOR ( 'NONE', #159, 1000.000000000000000 ) ;
#89 = PERSON_AND_ORGANIZATION_ROLE ( 'design_supplier' ) ;
#90 = LOCAL_TIME ( 10, 58, 32.00000000000000000, #31 ) ;
#91 = DIRECTION ( 'NONE',  ( 0.000000000000000000, 0.000000000000000000, 1.000000000000000000 ) ) ;
#92 = PLANE ( 'NONE',  #11 ) ;
#93 = ADVANCED_FACE ( 'NONE', ( #106 ), #3, .T. ) ;
#94 = CC_DESIGN_PERSON_AND_ORGANIZATION_ASSIGNMENT ( #84, #22, ( #55 ) ) ;
#95 = PERSON_AND_ORGANIZATION_ROLE ( 'design_owner' ) ;
#96 = CC_DESIGN_APPROVAL ( #154, ( #55 ) ) ;
#97 = DIRECTION ( 'NONE',  ( -1.000000000000000000, 0.000000000000000000, 0.000000000000000000 ) ) ;
#98 = PERSON_AND_ORGANIZATION ( #133, #36 ) ;
#99 = DATE_AND_TIME ( #109, #5 ) ;
#100 = APPROVAL ( #139, 'UNSPECIFIED' ) ;
#101 = LOCAL_TIME ( 10, 58, 32.00000000000000000, #85 ) ;
#102 = ORIENTED_EDGE ( 'NONE', *, *, #53, .F. ) ;
#103 = ORIENTED_EDGE ( 'NONE', *, *, #174, .T. ) ;
#104 = ORIENTED_EDGE ( 'NONE', *, *, #53, .T. ) ;
#105 = ORIENTED_EDGE ( 'NONE', *, *, #32, .T. ) ;
#106 = FACE_OUTER_BOUND ( 'NONE', #116, .T. ) ;
#107 = MECHANICAL_CONTEXT ( 'NONE', #160, 'mechanical' ) ;
#108 =( NAMED_UNIT ( * ) SI_UNIT ( $, .STERADIAN. ) SOLID_ANGLE_UNIT ( ) );
#109 = CALENDAR_DATE ( 2022, 22, 3 ) ;
#110 = PERSON_AND_ORGANIZATION_ROLE ( 'classification_officer' ) ;
#111 = PRODUCT_DEFINITION_SHAPE ( 'NONE', 'NONE',  #131 ) ;
#112 = PRODUCT ( 'Web Model 19730_19735', 'Web Model 19730_19735', '', ( #107 ) ) ;
#113 = CIRCLE ( 'NONE', #147, 25.00000000000000000 ) ;
#114 = LOCAL_TIME ( 10, 58, 32.00000000000000000, #33 ) ;
#115 = VERTEX_POINT ( 'NONE', #137 ) ;
#116 = EDGE_LOOP ( 'NONE', ( #102, #145, #105, #38 ) ) ;
#117 = ADVANCED_FACE ( 'NONE', ( #17 ), #67, .T. ) ;
#118 = VERTEX_POINT ( 'NONE', #30 ) ;
#119 =( NAMED_UNIT ( * ) PLANE_ANGLE_UNIT ( ) SI_UNIT ( $, .RADIAN. ) );
#120 = APPROVAL_DATE_TIME ( #15, #100 ) ;
#121 = CARTESIAN_POINT ( 'NONE',  ( 0.000000000000000000, 0.000000000000000000, 3.000000000000000000 ) ) ;
#122 = EDGE_CURVE ( 'NONE', #24, #170, #113, .T. ) ;
#123 = DIRECTION ( 'NONE',  ( 1.000000000000000000, 0.000000000000000000, 0.000000000000000000 ) ) ;
#124 = APPROVAL ( #143, 'UNSPECIFIED' ) ;
#125 = CC_DESIGN_APPROVAL ( #100, ( #131 ) ) ;
#126 = PERSON_AND_ORGANIZATION ( #133, #36 ) ;
#127 = SHAPE_DEFINITION_REPRESENTATION ( #111, #66 ) ;
#128 = SECURITY_CLASSIFICATION_LEVEL ( 'unclassified' ) ;
#129 = DIRECTION ( 'NONE',  ( 1.000000000000000000, 0.000000000000000000, -0.000000000000000000 ) ) ;
#130 = ORIENTED_EDGE ( 'NONE', *, *, #122, .T. ) ;
#131 = PRODUCT_DEFINITION ( 'UNKNOWN', '', #55, #35 ) ;
#132 = DIRECTION ( 'NONE',  ( 0.000000000000000000, 0.000000000000000000, 1.000000000000000000 ) ) ;
#133 = PERSON ( 'UNSPECIFIED', 'UNSPECIFIED', 'UNSPECIFIED', ('UNSPECIFIED'), ('UNSPECIFIED'), ('UNSPECIFIED') ) ;
#134 = CARTESIAN_POINT ( 'NONE',  ( 25.00000000000000000, 3.061616997868383043E-15, 3.000000000000000000 ) ) ;
#135 = APPROVAL_PERSON_ORGANIZATION ( #136, #100, #64 ) ;
#136 = PERSON_AND_ORGANIZATION ( #133, #36 ) ;
#137 = CARTESIAN_POINT ( 'NONE',  ( -25.00000000000000000, 0.000000000000000000, 3.000000000000000000 ) ) ;
#138 = CARTESIAN_POINT ( 'NONE',  ( -25.00000000000000000, 0.000000000000000000, 0.000000000000000000 ) ) ;
#139 = APPROVAL_STATUS ( 'not_yet_approved' ) ;
#140 = AXIS2_PLACEMENT_3D ( 'NONE', #150, #162, #54 ) ;
#141 = COORDINATED_UNIVERSAL_TIME_OFFSET ( 5, 0, .BEHIND. ) ;
#142 = CC_DESIGN_APPROVAL ( #124, ( #167 ) ) ;
#143 = APPROVAL_STATUS ( 'not_yet_approved' ) ;
#144 = AXIS2_PLACEMENT_3D ( 'NONE', #26, #132, #9 ) ;
#145 = ORIENTED_EDGE ( 'NONE', *, *, #174, .F. ) ;
#146 = DIRECTION ( 'NONE',  ( -0.000000000000000000, -0.000000000000000000, -1.000000000000000000 ) ) ;
#147 = AXIS2_PLACEMENT_3D ( 'NONE', #149, #2, #166 ) ;
#148 = DIRECTION ( 'NONE',  ( 0.000000000000000000, 0.000000000000000000, 1.000000000000000000 ) ) ;
#149 = CARTESIAN_POINT ( 'NONE',  ( 0.000000000000000000, 0.000000000000000000, 0.000000000000000000 ) ) ;
#150 = CARTESIAN_POINT ( 'NONE',  ( 0.000000000000000000, 0.000000000000000000, 3.000000000000000000 ) ) ;
#151 = DIRECTION ( 'NONE',  ( -0.000000000000000000, -0.000000000000000000, -1.000000000000000000 ) ) ;
#152 = CLOSED_SHELL ( 'NONE', ( #117, #93, #23, #39 ) ) ;
#153 = CC_DESIGN_PERSON_AND_ORGANIZATION_ASSIGNMENT ( #155, #95, ( #112 ) ) ;
#154 = APPROVAL ( #44, 'UNSPECIFIED' ) ;
#155 = PERSON_AND_ORGANIZATION ( #133, #36 ) ;
#156 = DATE_AND_TIME ( #69, #114 ) ;
#157 = CARTESIAN_POINT ( 'NONE',  ( -25.00000000000000000, 0.000000000000000000, 3.000000000000000000 ) ) ;
#158 = ORIENTED_EDGE ( 'NONE', *, *, #122, .F. ) ;
#159 = DIRECTION ( 'NONE',  ( -0.000000000000000000, -0.000000000000000000, -1.000000000000000000 ) ) ;
#160 = APPLICATION_CONTEXT ( 'configuration controlled 3d designs of mechanical parts and assemblies' ) ;
#161 = CIRCLE ( 'NONE', #140, 25.00000000000000000 ) ;
#162 = DIRECTION ( 'NONE',  ( 0.000000000000000000, 0.000000000000000000, 1.000000000000000000 ) ) ;
#163 = CARTESIAN_POINT ( 'NONE',  ( 0.000000000000000000, 0.000000000000000000, 3.000000000000000000 ) ) ;
#164 = EDGE_CURVE ( 'NONE', #118, #115, #161, .T. ) ;
#165 = DATE_TIME_ROLE ( 'creation_date' ) ;
#166 = DIRECTION ( 'NONE',  ( 1.000000000000000000, 0.000000000000000000, 0.000000000000000000 ) ) ;
#167 = SECURITY_CLASSIFICATION ( '', '', #128 ) ;
#168 = PERSON_AND_ORGANIZATION ( #133, #36 ) ;
#169 = APPLICATION_CONTEXT ( 'configuration controlled 3d designs of mechanical parts and assemblies' ) ;
#170 = VERTEX_POINT ( 'NONE', #138 ) ;
#171 = ORIENTED_EDGE ( 'NONE', *, *, #164, .F. ) ;
#172 = AXIS2_PLACEMENT_3D ( 'NONE', #173, #91, #129 ) ;
#173 = CARTESIAN_POINT ( 'NONE',  ( 0.000000000000000000, 0.000000000000000000, 3.000000000000000000 ) ) ;
#174 = EDGE_CURVE ( 'NONE', #115, #118, #83, .T. ) ;
#175 = APPLICATION_PROTOCOL_DEFINITION ( 'international standard', 'config_control_design', 1994, #160 ) ;
ENDSEC;
END-ISO-10303-21;
