ISO-10303-21;
HEADER;
FILE_DESCRIPTION (( 'STEP AP203' ),
    '1' );
FILE_NAME ('Web Model 43216_48465.step',
    '2018-03-12T19:18:46',
    ( '' ),
    ( '' ),
    'SwSTEP 2.0',
    'SolidWorks 2016',
    '' );
FILE_SCHEMA (( 'CONFIG_CONTROL_DESIGN' ));
ENDSEC;

DATA;
#1 = ORIENTED_EDGE ( 'NONE', *, *, #30, .T. ) ;
#2 = UNCERTAINTY_MEASURE_WITH_UNIT (LENGTH_MEASURE( 1.000000000000000100E-005 ), #169, 'distance_accuracy_value', 'NONE');
#3 = LOCAL_TIME ( 15, 18, 46.00000000000000000, #59 ) ;
#4 = PLANE ( 'NONE',  #215 ) ;
#5 = ORIENTED_EDGE ( 'NONE', *, *, #30, .F. ) ;
#6 = SECURITY_CLASSIFICATION_LEVEL ( 'unclassified' ) ;
#7 = PRODUCT_DEFINITION ( 'UNKNOWN', '', #171, #28 ) ;
#8 = PERSON_AND_ORGANIZATION ( #76, #165 ) ;
#9 = CARTESIAN_POINT ( 'NONE',  ( 4.750000000000000000, 12.50000000000000000, -12.50000000000000000 ) ) ;
#10 = LINE ( 'NONE', #55, #162 ) ;
#11 = EDGE_LOOP ( 'NONE', ( #163, #170, #194, #180 ) ) ;
#12 = APPROVAL ( #86, 'UNSPECIFIED' ) ;
#13 = PERSON_AND_ORGANIZATION ( #76, #165 ) ;
#14 = DIRECTION ( 'NONE',  ( 0.0000000000000000000, -1.000000000000000000, -2.081668171172168500E-016 ) ) ;
#15 = COORDINATED_UNIVERSAL_TIME_OFFSET ( 5, 0, .BEHIND. ) ;
#16 = CARTESIAN_POINT ( 'NONE',  ( 4.750000000000000000, 12.50000000000000000, 12.49999999999999600 ) ) ;
#17 = PRODUCT_RELATED_PRODUCT_CATEGORY ( 'detail', '', ( #164 ) ) ;
#18 = LINE ( 'NONE', #16, #60 ) ;
#19 = PLANE ( 'NONE',  #135 ) ;
#20 = PERSON_AND_ORGANIZATION ( #76, #165 ) ;
#21 = MANIFOLD_SOLID_BREP ( 'Boss-Extrude1', #124 ) ;
#22 = CC_DESIGN_PERSON_AND_ORGANIZATION_ASSIGNMENT ( #149, #209, ( #171 ) ) ;
#23 = CALENDAR_DATE ( 2018, 12, 3 ) ;
#24 = EDGE_CURVE ( 'NONE', #25, #157, #229, .T. ) ;
#25 = VERTEX_POINT ( 'NONE', #219 ) ;
#26 = SECURITY_CLASSIFICATION ( '', '', #6 ) ;
#27 = PLANE ( 'NONE',  #120 ) ;
#28 = DESIGN_CONTEXT ( 'detailed design', #104, 'design' ) ;
#29 =( NAMED_UNIT ( * ) PLANE_ANGLE_UNIT ( ) SI_UNIT ( $, .RADIAN. ) );
#30 = EDGE_CURVE ( 'NONE', #40, #161, #172, .T. ) ;
#31 = CARTESIAN_POINT ( 'NONE',  ( -4.750000000000000000, 12.50000000000000000, -12.50000000000000000 ) ) ;
#32 = LINE ( 'NONE', #131, #64 ) ;
#33 = VECTOR ( 'NONE', #112, 1000.000000000000000 ) ;
#34 = CARTESIAN_POINT ( 'NONE',  ( 4.750000000000000000, -12.50000000000000000, 12.50000000000000200 ) ) ;
#35 = CC_DESIGN_PERSON_AND_ORGANIZATION_ASSIGNMENT ( #13, #212, ( #26 ) ) ;
#36 = ORIENTED_EDGE ( 'NONE', *, *, #187, .F. ) ;
#37 = DIRECTION ( 'NONE',  ( 0.0000000000000000000, 1.000000000000000000, -2.081668171172168500E-016 ) ) ;
#38 = DIRECTION ( 'NONE',  ( 0.0000000000000000000, 0.0000000000000000000, -1.000000000000000000 ) ) ;
#39 = EDGE_LOOP ( 'NONE', ( #145, #223, #130, #227 ) ) ;
#40 = VERTEX_POINT ( 'NONE', #155 ) ;
#41 = CARTESIAN_POINT ( 'NONE',  ( 4.750000000000000000, 12.50000000000000000, -12.50000000000000000 ) ) ;
#42 = LOCAL_TIME ( 15, 18, 46.00000000000000000, #141 ) ;
#43 = FACE_OUTER_BOUND ( 'NONE', #116, .T. ) ;
#44 = DATE_AND_TIME ( #23, #218 ) ;
#45 = CC_DESIGN_PERSON_AND_ORGANIZATION_ASSIGNMENT ( #95, #188, ( #7 ) ) ;
#46 = ADVANCED_FACE ( 'NONE', ( #93 ), #156, .F. ) ;
#47 = EDGE_CURVE ( 'NONE', #231, #152, #65, .T. ) ;
#48 = APPROVAL_DATE_TIME ( #72, #12 ) ;
#49 = PRODUCT_DEFINITION_SHAPE ( 'NONE', 'NONE',  #7 ) ;
#50 = ADVANCED_FACE ( 'NONE', ( #123 ), #54, .F. ) ;
#51 = AXIS2_PLACEMENT_3D ( 'NONE', #58, #138, #14 ) ;
#52 = CARTESIAN_POINT ( 'NONE',  ( 4.750000000000000000, 12.50000000000000000, -12.50000000000000000 ) ) ;
#53 = EDGE_LOOP ( 'NONE', ( #136, #5, #148, #129 ) ) ;
#54 = PLANE ( 'NONE',  #78 ) ;
#55 = CARTESIAN_POINT ( 'NONE',  ( -4.750000000000000000, -12.50000000000000000, 12.50000000000000200 ) ) ;
#56 = LINE ( 'NONE', #41, #57 ) ;
#57 = VECTOR ( 'NONE', #181, 1000.000000000000000 ) ;
#58 = CARTESIAN_POINT ( 'NONE',  ( 4.750000000000000000, 12.50000000000000000, -12.50000000000000000 ) ) ;
#59 = COORDINATED_UNIVERSAL_TIME_OFFSET ( 5, 0, .BEHIND. ) ;
#60 = VECTOR ( 'NONE', #236, 1000.000000000000000 ) ;
#61 = ORIENTED_EDGE ( 'NONE', *, *, #220, .T. ) ;
#62 = LOCAL_TIME ( 15, 18, 46.00000000000000000, #140 ) ;
#63 = EDGE_CURVE ( 'NONE', #161, #166, #192, .T. ) ;
#64 = VECTOR ( 'NONE', #189, 1000.000000000000000 ) ;
#65 = LINE ( 'NONE', #52, #106 ) ;
#66 = CC_DESIGN_DATE_AND_TIME_ASSIGNMENT ( #177, #103, ( #26 ) ) ;
#67 = APPROVAL_STATUS ( 'not_yet_approved' ) ;
#68 = PERSON_AND_ORGANIZATION ( #76, #165 ) ;
#69 = APPLICATION_PROTOCOL_DEFINITION ( 'international standard', 'config_control_design', 1994, #104 ) ;
#70 = APPROVAL_ROLE ( '' ) ;
#71 = APPROVAL_STATUS ( 'not_yet_approved' ) ;
#72 = DATE_AND_TIME ( #99, #62 ) ;
#73 = ADVANCED_BREP_SHAPE_REPRESENTATION ( 'Web Model 43216_48465', ( #21, #144 ), #235 ) ;
#74 = DIRECTION ( 'NONE',  ( 0.0000000000000000000, -1.000000000000000000, 2.081668171172168500E-016 ) ) ;
#75 = APPROVAL ( #71, 'UNSPECIFIED' ) ;
#76 = PERSON ( 'UNSPECIFIED', 'UNSPECIFIED', 'UNSPECIFIED', ('UNSPECIFIED'), ('UNSPECIFIED'), ('UNSPECIFIED') ) ;
#77 = ORIENTED_EDGE ( 'NONE', *, *, #47, .F. ) ;
#78 = AXIS2_PLACEMENT_3D ( 'NONE', #89, #159, #126 ) ;
#79 = LINE ( 'NONE', #228, #122 ) ;
#80 = LINE ( 'NONE', #91, #154 ) ;
#81 = DIRECTION ( 'NONE',  ( 0.0000000000000000000, -1.000000000000000000, 0.0000000000000000000 ) ) ;
#82 =( NAMED_UNIT ( * ) SI_UNIT ( $, .STERADIAN. ) SOLID_ANGLE_UNIT ( ) );
#83 = PERSON_AND_ORGANIZATION_ROLE ( 'design_owner' ) ;
#84 = CARTESIAN_POINT ( 'NONE',  ( 4.750000000000000000, 0.0000000000000000000, 0.0000000000000000000 ) ) ;
#85 = DIRECTION ( 'NONE',  ( 1.000000000000000000, 0.0000000000000000000, 0.0000000000000000000 ) ) ;
#86 = APPROVAL_STATUS ( 'not_yet_approved' ) ;
#87 = APPROVAL_DATE_TIME ( #217, #75 ) ;
#88 = CC_DESIGN_PERSON_AND_ORGANIZATION_ASSIGNMENT ( #20, #83, ( #164 ) ) ;
#89 = CARTESIAN_POINT ( 'NONE',  ( 4.750000000000000000, -12.50000000000000000, 12.50000000000000200 ) ) ;
#90 = APPROVAL_PERSON_ORGANIZATION ( #211, #12, #167 ) ;
#91 = CARTESIAN_POINT ( 'NONE',  ( 4.750000000000000000, 12.50000000000000000, 12.49999999999999600 ) ) ;
#92 = FACE_OUTER_BOUND ( 'NONE', #39, .T. ) ;
#93 = FACE_OUTER_BOUND ( 'NONE', #11, .T. ) ;
#94 = PERSON_AND_ORGANIZATION ( #76, #165 ) ;
#95 = PERSON_AND_ORGANIZATION ( #76, #165 ) ;
#96 = LINE ( 'NONE', #125, #151 ) ;
#97 = ORIENTED_EDGE ( 'NONE', *, *, #63, .T. ) ;
#98 = CARTESIAN_POINT ( 'NONE',  ( -4.750000000000000000, 12.50000000000000000, -12.50000000000000000 ) ) ;
#99 = CALENDAR_DATE ( 2018, 12, 3 ) ;
#100 = DIRECTION ( 'NONE',  ( 0.0000000000000000000, -0.0000000000000000000, -1.000000000000000000 ) ) ;
#101 = ORIENTED_EDGE ( 'NONE', *, *, #24, .F. ) ;
#102 = APPROVAL_ROLE ( '' ) ;
#103 = DATE_TIME_ROLE ( 'classification_date' ) ;
#104 = APPLICATION_CONTEXT ( 'configuration controlled 3d designs of mechanical parts and assemblies' ) ;
#105 = ADVANCED_FACE ( 'NONE', ( #115 ), #108, .F. ) ;
#106 = VECTOR ( 'NONE', #197, 1000.000000000000000 ) ;
#107 = DIRECTION ( 'NONE',  ( 0.0000000000000000000, 0.0000000000000000000, 1.000000000000000000 ) ) ;
#108 = PLANE ( 'NONE',  #51 ) ;
#109 = EDGE_CURVE ( 'NONE', #143, #25, #96, .T. ) ;
#110 = DIRECTION ( 'NONE',  ( -1.000000000000000000, -0.0000000000000000000, -0.0000000000000000000 ) ) ;
#111 = SHAPE_DEFINITION_REPRESENTATION ( #49, #73 ) ;
#112 = DIRECTION ( 'NONE',  ( -1.000000000000000000, -0.0000000000000000000, -0.0000000000000000000 ) ) ;
#113 = EDGE_CURVE ( 'NONE', #231, #40, #18, .T. ) ;
#114 = CARTESIAN_POINT ( 'NONE',  ( -4.750000000000000000, -12.50000000000000000, -12.50000000000000500 ) ) ;
#115 = FACE_OUTER_BOUND ( 'NONE', #139, .T. ) ;
#116 = EDGE_LOOP ( 'NONE', ( #97, #203, #173, #1 ) ) ;
#117 = ORIENTED_EDGE ( 'NONE', *, *, #24, .T. ) ;
#118 = ORIENTED_EDGE ( 'NONE', *, *, #226, .T. ) ;
#119 = PERSON_AND_ORGANIZATION_ROLE ( 'design_supplier' ) ;
#120 = AXIS2_PLACEMENT_3D ( 'NONE', #84, #150, #134 ) ;
#121 = DIRECTION ( 'NONE',  ( -0.0000000000000000000, 1.000000000000000000, 2.081668171172168500E-016 ) ) ;
#122 = VECTOR ( 'NONE', #133, 1000.000000000000000 ) ;
#123 = FACE_OUTER_BOUND ( 'NONE', #230, .T. ) ;
#124 = CLOSED_SHELL ( 'NONE', ( #132, #50, #105, #207, #216, #46 ) ) ;
#125 = CARTESIAN_POINT ( 'NONE',  ( 4.750000000000000000, -12.50000000000000000, 12.50000000000000200 ) ) ;
#126 = DIRECTION ( 'NONE',  ( 0.0000000000000000000, -0.0000000000000000000, 1.000000000000000000 ) ) ;
#127 = FACE_OUTER_BOUND ( 'NONE', #53, .T. ) ;
#128 = CALENDAR_DATE ( 2018, 12, 3 ) ;
#129 = ORIENTED_EDGE ( 'NONE', *, *, #47, .T. ) ;
#130 = ORIENTED_EDGE ( 'NONE', *, *, #187, .T. ) ;
#131 = CARTESIAN_POINT ( 'NONE',  ( 4.750000000000000000, -12.50000000000000000, 12.50000000000000200 ) ) ;
#132 = ADVANCED_FACE ( 'NONE', ( #43 ), #19, .F. ) ;
#133 = DIRECTION ( 'NONE',  ( -0.0000000000000000000, -0.0000000000000000000, 1.000000000000000000 ) ) ;
#134 = DIRECTION ( 'NONE',  ( 0.0000000000000000000, 0.0000000000000000000, -1.000000000000000000 ) ) ;
#135 = AXIS2_PLACEMENT_3D ( 'NONE', #221, #179, #37 ) ;
#136 = ORIENTED_EDGE ( 'NONE', *, *, #237, .T. ) ;
#137 = ORIENTED_EDGE ( 'NONE', *, *, #109, .F. ) ;
#138 = DIRECTION ( 'NONE',  ( 0.0000000000000000000, -2.081668171172168500E-016, 1.000000000000000000 ) ) ;
#139 = EDGE_LOOP ( 'NONE', ( #118, #77, #36, #117 ) ) ;
#140 = COORDINATED_UNIVERSAL_TIME_OFFSET ( 5, 0, .BEHIND. ) ;
#141 = COORDINATED_UNIVERSAL_TIME_OFFSET ( 5, 0, .BEHIND. ) ;
#142 = CARTESIAN_POINT ( 'NONE',  ( -4.750000000000000000, 12.50000000000000000, 12.49999999999999600 ) ) ;
#143 = VERTEX_POINT ( 'NONE', #34 ) ;
#144 = AXIS2_PLACEMENT_3D ( 'NONE', #193, #107, #85 ) ;
#145 = ORIENTED_EDGE ( 'NONE', *, *, #160, .T. ) ;
#146 = EDGE_CURVE ( 'NONE', #166, #157, #10, .T. ) ;
#147 = APPLICATION_PROTOCOL_DEFINITION ( 'international standard', 'config_control_design', 1994, #191 ) ;
#148 = ORIENTED_EDGE ( 'NONE', *, *, #113, .F. ) ;
#149 = PERSON_AND_ORGANIZATION ( #76, #165 ) ;
#150 = DIRECTION ( 'NONE',  ( 1.000000000000000000, 0.0000000000000000000, 0.0000000000000000000 ) ) ;
#151 = VECTOR ( 'NONE', #198, 1000.000000000000000 ) ;
#152 = VERTEX_POINT ( 'NONE', #98 ) ;
#153 = APPROVAL_PERSON_ORGANIZATION ( #94, #75, #70 ) ;
#154 = VECTOR ( 'NONE', #174, 1000.000000000000000 ) ;
#155 = CARTESIAN_POINT ( 'NONE',  ( 4.750000000000000000, 12.50000000000000000, 12.49999999999999600 ) ) ;
#156 = PLANE ( 'NONE',  #201 ) ;
#157 = VERTEX_POINT ( 'NONE', #114 ) ;
#158 = CC_DESIGN_DATE_AND_TIME_ASSIGNMENT ( #44, #214, ( #7 ) ) ;
#159 = DIRECTION ( 'NONE',  ( -0.0000000000000000000, 1.000000000000000000, 0.0000000000000000000 ) ) ;
#160 = EDGE_CURVE ( 'NONE', #40, #143, #80, .T. ) ;
#161 = VERTEX_POINT ( 'NONE', #142 ) ;
#162 = VECTOR ( 'NONE', #199, 1000.000000000000000 ) ;
#163 = ORIENTED_EDGE ( 'NONE', *, *, #63, .F. ) ;
#164 = PRODUCT ( 'Web Model 43216_48465', 'Web Model 43216_48465', '', ( #213 ) ) ;
#165 = ORGANIZATION ( 'UNSPECIFIED', 'UNSPECIFIED', '' ) ;
#166 = VERTEX_POINT ( 'NONE', #202 ) ;
#167 = APPROVAL_ROLE ( '' ) ;
#168 = CALENDAR_DATE ( 2018, 12, 3 ) ;
#169 =( LENGTH_UNIT ( ) NAMED_UNIT ( * ) SI_UNIT ( .MILLI., .METRE. ) );
#170 = ORIENTED_EDGE ( 'NONE', *, *, #237, .F. ) ;
#171 = PRODUCT_DEFINITION_FORMATION_WITH_SPECIFIED_SOURCE ( 'ANY', '', #164, .NOT_KNOWN. ) ;
#172 = LINE ( 'NONE', #232, #33 ) ;
#173 = ORIENTED_EDGE ( 'NONE', *, *, #160, .F. ) ;
#174 = DIRECTION ( 'NONE',  ( 0.0000000000000000000, -1.000000000000000000, 2.081668171172168500E-016 ) ) ;
#175 = CC_DESIGN_PERSON_AND_ORGANIZATION_ASSIGNMENT ( #8, #119, ( #171 ) ) ;
#176 = DIRECTION ( 'NONE',  ( 1.000000000000000000, 0.0000000000000000000, 0.0000000000000000000 ) ) ;
#177 = DATE_AND_TIME ( #195, #3 ) ;
#178 = CARTESIAN_POINT ( 'NONE',  ( -4.750000000000000000, 0.0000000000000000000, 0.0000000000000000000 ) ) ;
#179 = DIRECTION ( 'NONE',  ( 0.0000000000000000000, -2.081668171172168500E-016, -1.000000000000000000 ) ) ;
#180 = ORIENTED_EDGE ( 'NONE', *, *, #146, .F. ) ;
#181 = DIRECTION ( 'NONE',  ( -0.0000000000000000000, 1.000000000000000000, 2.081668171172168500E-016 ) ) ;
#182 = APPROVAL_DATE_TIME ( #233, #185 ) ;
#183 = COORDINATED_UNIVERSAL_TIME_OFFSET ( 5, 0, .BEHIND. ) ;
#184 = LINE ( 'NONE', #31, #204 ) ;
#185 = APPROVAL ( #67, 'UNSPECIFIED' ) ;
#186 = ORIENTED_EDGE ( 'NONE', *, *, #146, .T. ) ;
#187 = EDGE_CURVE ( 'NONE', #25, #231, #56, .T. ) ;
#188 = PERSON_AND_ORGANIZATION_ROLE ( 'creator' ) ;
#189 = DIRECTION ( 'NONE',  ( -1.000000000000000000, -0.0000000000000000000, -0.0000000000000000000 ) ) ;
#190 = CC_DESIGN_APPROVAL ( #75, ( #26 ) ) ;
#191 = APPLICATION_CONTEXT ( 'configuration controlled 3d designs of mechanical parts and assemblies' ) ;
#192 = LINE ( 'NONE', #234, #206 ) ;
#193 = CARTESIAN_POINT ( 'NONE',  ( 0.0000000000000000000, 0.0000000000000000000, 0.0000000000000000000 ) ) ;
#194 = ORIENTED_EDGE ( 'NONE', *, *, #226, .F. ) ;
#195 = CALENDAR_DATE ( 2018, 12, 3 ) ;
#196 = CC_DESIGN_APPROVAL ( #12, ( #7 ) ) ;
#197 = DIRECTION ( 'NONE',  ( -1.000000000000000000, -0.0000000000000000000, -0.0000000000000000000 ) ) ;
#198 = DIRECTION ( 'NONE',  ( 0.0000000000000000000, 0.0000000000000000000, -1.000000000000000000 ) ) ;
#199 = DIRECTION ( 'NONE',  ( 0.0000000000000000000, 0.0000000000000000000, -1.000000000000000000 ) ) ;
#200 = CARTESIAN_POINT ( 'NONE',  ( 4.750000000000000000, -12.50000000000000000, -12.50000000000000500 ) ) ;
#201 = AXIS2_PLACEMENT_3D ( 'NONE', #178, #176, #38 ) ;
#202 = CARTESIAN_POINT ( 'NONE',  ( -4.750000000000000000, -12.50000000000000000, 12.50000000000000200 ) ) ;
#203 = ORIENTED_EDGE ( 'NONE', *, *, #220, .F. ) ;
#204 = VECTOR ( 'NONE', #121, 1000.000000000000000 ) ;
#205 = CC_DESIGN_SECURITY_CLASSIFICATION ( #26, ( #171 ) ) ;
#206 = VECTOR ( 'NONE', #74, 1000.000000000000000 ) ;
#207 = ADVANCED_FACE ( 'NONE', ( #127 ), #4, .F. ) ;
#208 = LOCAL_TIME ( 15, 18, 46.00000000000000000, #15 ) ;
#209 = PERSON_AND_ORGANIZATION_ROLE ( 'creator' ) ;
#210 = CC_DESIGN_APPROVAL ( #185, ( #171 ) ) ;
#211 = PERSON_AND_ORGANIZATION ( #76, #165 ) ;
#212 = PERSON_AND_ORGANIZATION_ROLE ( 'classification_officer' ) ;
#213 = MECHANICAL_CONTEXT ( 'NONE', #191, 'mechanical' ) ;
#214 = DATE_TIME_ROLE ( 'creation_date' ) ;
#215 = AXIS2_PLACEMENT_3D ( 'NONE', #224, #81, #100 ) ;
#216 = ADVANCED_FACE ( 'NONE', ( #92 ), #27, .T. ) ;
#217 = DATE_AND_TIME ( #128, #42 ) ;
#218 = LOCAL_TIME ( 15, 18, 46.00000000000000000, #183 ) ;
#219 = CARTESIAN_POINT ( 'NONE',  ( 4.750000000000000000, -12.50000000000000000, -12.50000000000000500 ) ) ;
#220 = EDGE_CURVE ( 'NONE', #143, #166, #32, .T. ) ;
#221 = CARTESIAN_POINT ( 'NONE',  ( 4.750000000000000000, 12.50000000000000000, 12.49999999999999600 ) ) ;
#222 = APPROVAL_PERSON_ORGANIZATION ( #68, #185, #102 ) ;
#223 = ORIENTED_EDGE ( 'NONE', *, *, #109, .T. ) ;
#224 = CARTESIAN_POINT ( 'NONE',  ( 4.750000000000000000, 12.50000000000000000, 12.49999999999999600 ) ) ;
#225 = VECTOR ( 'NONE', #110, 1000.000000000000000 ) ;
#226 = EDGE_CURVE ( 'NONE', #157, #152, #184, .T. ) ;
#227 = ORIENTED_EDGE ( 'NONE', *, *, #113, .T. ) ;
#228 = CARTESIAN_POINT ( 'NONE',  ( -4.750000000000000000, 12.50000000000000000, 12.49999999999999600 ) ) ;
#229 = LINE ( 'NONE', #200, #225 ) ;
#230 = EDGE_LOOP ( 'NONE', ( #186, #101, #137, #61 ) ) ;
#231 = VERTEX_POINT ( 'NONE', #9 ) ;
#232 = CARTESIAN_POINT ( 'NONE',  ( 4.750000000000000000, 12.50000000000000000, 12.49999999999999600 ) ) ;
#233 = DATE_AND_TIME ( #168, #208 ) ;
#234 = CARTESIAN_POINT ( 'NONE',  ( -4.750000000000000000, 12.50000000000000000, 12.49999999999999600 ) ) ;
#235 =( GEOMETRIC_REPRESENTATION_CONTEXT ( 3 ) GLOBAL_UNCERTAINTY_ASSIGNED_CONTEXT ( ( #2 ) ) GLOBAL_UNIT_ASSIGNED_CONTEXT ( ( #169, #29, #82 ) ) REPRESENTATION_CONTEXT ( 'NONE', 'WORKASPACE' ) );
#236 = DIRECTION ( 'NONE',  ( -0.0000000000000000000, -0.0000000000000000000, 1.000000000000000000 ) ) ;
#237 = EDGE_CURVE ( 'NONE', #152, #161, #79, .T. ) ;
ENDSEC;
END-ISO-10303-21;
