ISO-10303-21;
HEADER;
FILE_DESCRIPTION (( 'STEP AP203' ),
    '1' );
FILE_NAME ('Web Model 46461_18721.step',
    '2021-07-13T18:57:17',
    ( '' ),
    ( '' ),
    'SwSTEP 2.0',
    'SolidWorks 2018',
    '' );
FILE_SCHEMA (( 'CONFIG_CONTROL_DESIGN' ));
ENDSEC;

DATA;
#1 = CARTESIAN_POINT ( 'NONE',  ( -0.7500000000000000000, -18.99999999999999645, -19.00000000000000711 ) ) ;
#2 = VERTEX_POINT ( 'NONE', #1 ) ;
#3 = DIRECTION ( 'NONE',  ( 0.000000000000000000, -1.000000000000000000, 1.826024711554534160E-16 ) ) ;
#4 = DIRECTION ( 'NONE',  ( 0.000000000000000000, 0.000000000000000000, 1.000000000000000000 ) ) ;
#5 = DATE_TIME_ROLE ( 'classification_date' ) ;
#6 = VERTEX_POINT ( 'NONE', #146 ) ;
#7 = CC_DESIGN_APPROVAL ( #162, ( #232 ) ) ;
#8 = EDGE_LOOP ( 'NONE', ( #40, #91, #142, #100 ) ) ;
#9 = APPROVAL_PERSON_ORGANIZATION ( #28, #96, #147 ) ;
#10 = VECTOR ( 'NONE', #85, 1000.000000000000000 ) ;
#11 = ADVANCED_FACE ( 'NONE', ( #148 ), #221, .F. ) ;
#12 = VECTOR ( 'NONE', #30, 1000.000000000000000 ) ;
#13 = CC_DESIGN_PERSON_AND_ORGANIZATION_ASSIGNMENT ( #108, #58, ( #116 ) ) ;
#14 = ORIENTED_EDGE ( 'NONE', *, *, #75, .F. ) ;
#15 = CARTESIAN_POINT ( 'NONE',  ( 0.7500000000000000000, 18.99999999999999645, -19.00000000000000000 ) ) ;
#16 = EDGE_CURVE ( 'NONE', #68, #6, #79, .T. ) ;
#17 = AXIS2_PLACEMENT_3D ( 'NONE', #164, #103, #201 ) ;
#18 = PRODUCT_RELATED_PRODUCT_CATEGORY ( 'detail', '', ( #59 ) ) ;
#19 = VERTEX_POINT ( 'NONE', #154 ) ;
#20 = VECTOR ( 'NONE', #177, 1000.000000000000000 ) ;
#21 =( LENGTH_UNIT ( ) NAMED_UNIT ( * ) SI_UNIT ( .MILLI., .METRE. ) );
#22 = CARTESIAN_POINT ( 'NONE',  ( 0.000000000000000000, 0.000000000000000000, 0.000000000000000000 ) ) ;
#23 = CC_DESIGN_APPROVAL ( #92, ( #116 ) ) ;
#24 = DATE_AND_TIME ( #49, #83 ) ;
#25 = ORIENTED_EDGE ( 'NONE', *, *, #94, .F. ) ;
#26 = CARTESIAN_POINT ( 'NONE',  ( 0.7500000000000000000, 18.99999999999999645, -19.00000000000000000 ) ) ;
#27 = PERSON_AND_ORGANIZATION ( #127, #55 ) ;
#28 = PERSON_AND_ORGANIZATION ( #127, #55 ) ;
#29 = CARTESIAN_POINT ( 'NONE',  ( 0.7500000000000000000, 18.99999999999999645, 19.00000000000000000 ) ) ;
#30 = DIRECTION ( 'NONE',  ( -1.000000000000000000, -0.000000000000000000, -0.000000000000000000 ) ) ;
#31 = DIRECTION ( 'NONE',  ( 0.000000000000000000, -1.826024711554534160E-16, 1.000000000000000000 ) ) ;
#32 = LOCAL_TIME ( 14, 57, 17.00000000000000000, #76 ) ;
#33 = AXIS2_PLACEMENT_3D ( 'NONE', #62, #140, #217 ) ;
#34 = CC_DESIGN_PERSON_AND_ORGANIZATION_ASSIGNMENT ( #27, #89, ( #232 ) ) ;
#35 = LINE ( 'NONE', #149, #134 ) ;
#36 = DIRECTION ( 'NONE',  ( -0.000000000000000000, 1.000000000000000000, 0.000000000000000000 ) ) ;
#37 = VECTOR ( 'NONE', #3, 1000.000000000000000 ) ;
#38 = DIRECTION ( 'NONE',  ( 1.000000000000000000, 0.000000000000000000, 0.000000000000000000 ) ) ;
#39 = APPROVAL_ROLE ( '' ) ;
#40 = ORIENTED_EDGE ( 'NONE', *, *, #231, .T. ) ;
#41 = COORDINATED_UNIVERSAL_TIME_OFFSET ( 5, 0, .BEHIND. ) ;
#42 = ORIENTED_EDGE ( 'NONE', *, *, #16, .T. ) ;
#43 = LOCAL_TIME ( 14, 57, 17.00000000000000000, #219 ) ;
#44 = DIRECTION ( 'NONE',  ( 0.000000000000000000, -1.826024711554534160E-16, -1.000000000000000000 ) ) ;
#45 = CC_DESIGN_PERSON_AND_ORGANIZATION_ASSIGNMENT ( #192, #208, ( #116 ) ) ;
#46 = DIRECTION ( 'NONE',  ( -0.000000000000000000, 1.000000000000000000, 1.826024711554534160E-16 ) ) ;
#47 = ORIENTED_EDGE ( 'NONE', *, *, #135, .T. ) ;
#48 = EDGE_LOOP ( 'NONE', ( #145, #228, #138, #118 ) ) ;
#49 = CALENDAR_DATE ( 2021, 13, 7 ) ;
#50 = CARTESIAN_POINT ( 'NONE',  ( -0.7500000000000000000, 18.99999999999999645, -19.00000000000000000 ) ) ;
#51 = DIRECTION ( 'NONE',  ( 0.000000000000000000, 0.000000000000000000, -1.000000000000000000 ) ) ;
#52 = MANIFOLD_SOLID_BREP ( 'Boss-Extrude1', #54 ) ;
#53 = VECTOR ( 'NONE', #233, 1000.000000000000000 ) ;
#54 = CLOSED_SHELL ( 'NONE', ( #81, #218, #120, #160, #199, #11 ) ) ;
#55 = ORGANIZATION ( 'UNSPECIFIED', 'UNSPECIFIED', '' ) ;
#56 = DESIGN_CONTEXT ( 'detailed design', #57, 'design' ) ;
#57 = APPLICATION_CONTEXT ( 'configuration controlled 3d designs of mechanical parts and assemblies' ) ;
#58 = PERSON_AND_ORGANIZATION_ROLE ( 'creator' ) ;
#59 = PRODUCT ( 'Web Model 46461_18721', 'Web Model 46461_18721', '', ( #88 ) ) ;
#60 = LINE ( 'NONE', #235, #12 ) ;
#61 = EDGE_CURVE ( 'NONE', #19, #68, #35, .T. ) ;
#62 = CARTESIAN_POINT ( 'NONE',  ( 0.7500000000000000000, 18.99999999999999645, 19.00000000000000000 ) ) ;
#63 = VECTOR ( 'NONE', #97, 1000.000000000000000 ) ;
#64 = ORIENTED_EDGE ( 'NONE', *, *, #231, .F. ) ;
#65 = LINE ( 'NONE', #29, #20 ) ;
#66 = CARTESIAN_POINT ( 'NONE',  ( 0.7500000000000000000, -18.99999999999999645, -19.00000000000000711 ) ) ;
#67 = CC_DESIGN_DATE_AND_TIME_ASSIGNMENT ( #183, #5, ( #111 ) ) ;
#68 = VERTEX_POINT ( 'NONE', #174 ) ;
#69 = PLANE ( 'NONE',  #133 ) ;
#70 = APPLICATION_PROTOCOL_DEFINITION ( 'international standard', 'config_control_design', 1994, #57 ) ;
#71 = APPROVAL_ROLE ( '' ) ;
#72 = AXIS2_PLACEMENT_3D ( 'NONE', #101, #200, #51 ) ;
#73 = LINE ( 'NONE', #26, #63 ) ;
#74 = CC_DESIGN_PERSON_AND_ORGANIZATION_ASSIGNMENT ( #155, #109, ( #111 ) ) ;
#75 = EDGE_CURVE ( 'NONE', #2, #197, #123, .T. ) ;
#76 = COORDINATED_UNIVERSAL_TIME_OFFSET ( 5, 0, .BEHIND. ) ;
#77 = APPROVAL_PERSON_ORGANIZATION ( #129, #162, #71 ) ;
#78 =( GEOMETRIC_REPRESENTATION_CONTEXT ( 3 ) GLOBAL_UNCERTAINTY_ASSIGNED_CONTEXT ( ( #84 ) ) GLOBAL_UNIT_ASSIGNED_CONTEXT ( ( #21, #186, #222 ) ) REPRESENTATION_CONTEXT ( 'NONE', 'WORKASPACE' ) );
#79 = LINE ( 'NONE', #130, #110 ) ;
#80 = EDGE_CURVE ( 'NONE', #105, #197, #73, .T. ) ;
#81 = ADVANCED_FACE ( 'NONE', ( #157 ), #114, .F. ) ;
#82 = CARTESIAN_POINT ( 'NONE',  ( 0.7500000000000000000, -18.99999999999999645, 19.00000000000000711 ) ) ;
#83 = LOCAL_TIME ( 14, 57, 17.00000000000000000, #139 ) ;
#84 = UNCERTAINTY_MEASURE_WITH_UNIT (LENGTH_MEASURE( 1.000000000000000082E-05 ), #21, 'distance_accuracy_value', 'NONE');
#85 = DIRECTION ( 'NONE',  ( -0.000000000000000000, -0.000000000000000000, 1.000000000000000000 ) ) ;
#86 = ORIENTED_EDGE ( 'NONE', *, *, #61, .T. ) ;
#87 = DATE_AND_TIME ( #170, #122 ) ;
#88 = MECHANICAL_CONTEXT ( 'NONE', #131, 'mechanical' ) ;
#89 = PERSON_AND_ORGANIZATION_ROLE ( 'creator' ) ;
#90 = SECURITY_CLASSIFICATION_LEVEL ( 'unclassified' ) ;
#91 = ORIENTED_EDGE ( 'NONE', *, *, #61, .F. ) ;
#92 = APPROVAL ( #107, 'UNSPECIFIED' ) ;
#93 = APPROVAL_DATE_TIME ( #215, #92 ) ;
#94 = EDGE_CURVE ( 'NONE', #213, #6, #60, .T. ) ;
#95 = FACE_OUTER_BOUND ( 'NONE', #194, .T. ) ;
#96 = APPROVAL ( #132, 'UNSPECIFIED' ) ;
#97 = DIRECTION ( 'NONE',  ( -1.000000000000000000, -0.000000000000000000, -0.000000000000000000 ) ) ;
#98 = ORIENTED_EDGE ( 'NONE', *, *, #119, .T. ) ;
#99 = LINE ( 'NONE', #82, #53 ) ;
#100 = ORIENTED_EDGE ( 'NONE', *, *, #80, .T. ) ;
#101 = CARTESIAN_POINT ( 'NONE',  ( -0.7500000000000000000, 0.000000000000000000, 0.000000000000000000 ) ) ;
#102 = CC_DESIGN_DATE_AND_TIME_ASSIGNMENT ( #185, #225, ( #232 ) ) ;
#103 = DIRECTION ( 'NONE',  ( 1.000000000000000000, 0.000000000000000000, 0.000000000000000000 ) ) ;
#104 = LINE ( 'NONE', #15, #152 ) ;
#105 = VERTEX_POINT ( 'NONE', #182 ) ;
#106 = FACE_OUTER_BOUND ( 'NONE', #48, .T. ) ;
#107 = APPROVAL_STATUS ( 'not_yet_approved' ) ;
#108 = PERSON_AND_ORGANIZATION ( #127, #55 ) ;
#109 = PERSON_AND_ORGANIZATION_ROLE ( 'classification_officer' ) ;
#110 = VECTOR ( 'NONE', #172, 1000.000000000000000 ) ;
#111 = SECURITY_CLASSIFICATION ( '', '', #90 ) ;
#112 = FACE_OUTER_BOUND ( 'NONE', #8, .T. ) ;
#113 = CARTESIAN_POINT ( 'NONE',  ( -0.7500000000000000000, 18.99999999999999645, -19.00000000000000000 ) ) ;
#114 = PLANE ( 'NONE',  #158 ) ;
#115 = CALENDAR_DATE ( 2021, 13, 7 ) ;
#116 = PRODUCT_DEFINITION_FORMATION_WITH_SPECIFIED_SOURCE ( 'ANY', '', #59, .NOT_KNOWN. ) ;
#117 = CARTESIAN_POINT ( 'NONE',  ( 0.7500000000000000000, 18.99999999999999645, 19.00000000000000000 ) ) ;
#118 = ORIENTED_EDGE ( 'NONE', *, *, #94, .T. ) ;
#119 = EDGE_CURVE ( 'NONE', #191, #105, #104, .T. ) ;
#120 = ADVANCED_FACE ( 'NONE', ( #95 ), #227, .F. ) ;
#121 = ORIENTED_EDGE ( 'NONE', *, *, #16, .F. ) ;
#122 = LOCAL_TIME ( 14, 57, 17.00000000000000000, #224 ) ;
#123 = LINE ( 'NONE', #50, #165 ) ;
#124 = LOCAL_TIME ( 14, 57, 17.00000000000000000, #41 ) ;
#125 = CARTESIAN_POINT ( 'NONE',  ( 0.7500000000000000000, 18.99999999999999645, 19.00000000000000000 ) ) ;
#126 = LINE ( 'NONE', #184, #187 ) ;
#127 = PERSON ( 'UNSPECIFIED', 'UNSPECIFIED', 'UNSPECIFIED', ('UNSPECIFIED'), ('UNSPECIFIED'), ('UNSPECIFIED') ) ;
#128 = DIRECTION ( 'NONE',  ( -1.000000000000000000, -0.000000000000000000, -0.000000000000000000 ) ) ;
#129 = PERSON_AND_ORGANIZATION ( #127, #55 ) ;
#130 = CARTESIAN_POINT ( 'NONE',  ( -0.7500000000000000000, 18.99999999999999645, 19.00000000000000000 ) ) ;
#131 = APPLICATION_CONTEXT ( 'configuration controlled 3d designs of mechanical parts and assemblies' ) ;
#132 = APPROVAL_STATUS ( 'not_yet_approved' ) ;
#133 = AXIS2_PLACEMENT_3D ( 'NONE', #202, #36, #167 ) ;
#134 = VECTOR ( 'NONE', #151, 1000.000000000000000 ) ;
#135 = EDGE_CURVE ( 'NONE', #213, #191, #99, .T. ) ;
#136 = CC_DESIGN_APPROVAL ( #96, ( #111 ) ) ;
#137 = PERSON_AND_ORGANIZATION ( #127, #55 ) ;
#138 = ORIENTED_EDGE ( 'NONE', *, *, #135, .F. ) ;
#139 = COORDINATED_UNIVERSAL_TIME_OFFSET ( 5, 0, .BEHIND. ) ;
#140 = DIRECTION ( 'NONE',  ( 0.000000000000000000, -1.000000000000000000, 0.000000000000000000 ) ) ;
#141 = CC_DESIGN_SECURITY_CLASSIFICATION ( #111, ( #116 ) ) ;
#142 = ORIENTED_EDGE ( 'NONE', *, *, #171, .F. ) ;
#143 = SHAPE_DEFINITION_REPRESENTATION ( #161, #212 ) ;
#144 = LINE ( 'NONE', #166, #196 ) ;
#145 = ORIENTED_EDGE ( 'NONE', *, *, #220, .T. ) ;
#146 = CARTESIAN_POINT ( 'NONE',  ( -0.7500000000000000000, -18.99999999999999645, 19.00000000000000711 ) ) ;
#147 = APPROVAL_ROLE ( '' ) ;
#148 = FACE_OUTER_BOUND ( 'NONE', #173, .T. ) ;
#149 = CARTESIAN_POINT ( 'NONE',  ( 0.7500000000000000000, 18.99999999999999645, 19.00000000000000000 ) ) ;
#150 = CARTESIAN_POINT ( 'NONE',  ( 0.7500000000000000000, -18.99999999999999645, 19.00000000000000711 ) ) ;
#151 = DIRECTION ( 'NONE',  ( -1.000000000000000000, -0.000000000000000000, -0.000000000000000000 ) ) ;
#152 = VECTOR ( 'NONE', #46, 1000.000000000000000 ) ;
#153 = ORIENTED_EDGE ( 'NONE', *, *, #119, .F. ) ;
#154 = CARTESIAN_POINT ( 'NONE',  ( 0.7500000000000000000, 18.99999999999999645, 19.00000000000000000 ) ) ;
#155 = PERSON_AND_ORGANIZATION ( #127, #55 ) ;
#156 = DIRECTION ( 'NONE',  ( 0.000000000000000000, 1.000000000000000000, -1.826024711554534160E-16 ) ) ;
#157 = FACE_OUTER_BOUND ( 'NONE', #163, .T. ) ;
#158 = AXIS2_PLACEMENT_3D ( 'NONE', #117, #44, #156 ) ;
#159 = CALENDAR_DATE ( 2021, 13, 7 ) ;
#160 = ADVANCED_FACE ( 'NONE', ( #112 ), #214, .F. ) ;
#161 = PRODUCT_DEFINITION_SHAPE ( 'NONE', 'NONE',  #232 ) ;
#162 = APPROVAL ( #226, 'UNSPECIFIED' ) ;
#163 = EDGE_LOOP ( 'NONE', ( #42, #25, #210, #86 ) ) ;
#164 = CARTESIAN_POINT ( 'NONE',  ( 0.7500000000000000000, 0.000000000000000000, 0.000000000000000000 ) ) ;
#165 = VECTOR ( 'NONE', #198, 1000.000000000000000 ) ;
#166 = CARTESIAN_POINT ( 'NONE',  ( 0.7500000000000000000, -18.99999999999999645, -19.00000000000000711 ) ) ;
#167 = DIRECTION ( 'NONE',  ( 0.000000000000000000, -0.000000000000000000, 1.000000000000000000 ) ) ;
#168 = PERSON_AND_ORGANIZATION_ROLE ( 'design_owner' ) ;
#169 = EDGE_LOOP ( 'NONE', ( #223, #47, #98, #216 ) ) ;
#170 = CALENDAR_DATE ( 2021, 13, 7 ) ;
#171 = EDGE_CURVE ( 'NONE', #105, #19, #65, .T. ) ;
#172 = DIRECTION ( 'NONE',  ( 0.000000000000000000, -1.000000000000000000, 1.826024711554534160E-16 ) ) ;
#173 = EDGE_LOOP ( 'NONE', ( #121, #64, #14, #181 ) ) ;
#174 = CARTESIAN_POINT ( 'NONE',  ( -0.7500000000000000000, 18.99999999999999645, 19.00000000000000000 ) ) ;
#175 = LINE ( 'NONE', #125, #37 ) ;
#176 = APPROVAL_DATE_TIME ( #87, #162 ) ;
#177 = DIRECTION ( 'NONE',  ( -0.000000000000000000, -0.000000000000000000, 1.000000000000000000 ) ) ;
#178 = APPROVAL_PERSON_ORGANIZATION ( #137, #92, #39 ) ;
#179 = DIRECTION ( 'NONE',  ( 0.000000000000000000, -1.000000000000000000, -1.826024711554534160E-16 ) ) ;
#180 = PERSON_AND_ORGANIZATION ( #127, #55 ) ;
#181 = ORIENTED_EDGE ( 'NONE', *, *, #220, .F. ) ;
#182 = CARTESIAN_POINT ( 'NONE',  ( 0.7500000000000000000, 18.99999999999999645, -19.00000000000000000 ) ) ;
#183 = DATE_AND_TIME ( #159, #124 ) ;
#184 = CARTESIAN_POINT ( 'NONE',  ( -0.7500000000000000000, -18.99999999999999645, 19.00000000000000711 ) ) ;
#185 = DATE_AND_TIME ( #236, #43 ) ;
#186 =( NAMED_UNIT ( * ) PLANE_ANGLE_UNIT ( ) SI_UNIT ( $, .RADIAN. ) );
#187 = VECTOR ( 'NONE', #204, 1000.000000000000000 ) ;
#188 = CARTESIAN_POINT ( 'NONE',  ( -0.7500000000000000000, 18.99999999999999645, 19.00000000000000000 ) ) ;
#189 = CARTESIAN_POINT ( 'NONE',  ( 0.7500000000000000000, 18.99999999999999645, -19.00000000000000000 ) ) ;
#190 = ORIENTED_EDGE ( 'NONE', *, *, #75, .T. ) ;
#191 = VERTEX_POINT ( 'NONE', #66 ) ;
#192 = PERSON_AND_ORGANIZATION ( #127, #55 ) ;
#193 = AXIS2_PLACEMENT_3D ( 'NONE', #189, #31, #179 ) ;
#194 = EDGE_LOOP ( 'NONE', ( #190, #206, #153, #209 ) ) ;
#195 = PLANE ( 'NONE',  #17 ) ;
#196 = VECTOR ( 'NONE', #128, 1000.000000000000000 ) ;
#197 = VERTEX_POINT ( 'NONE', #113 ) ;
#198 = DIRECTION ( 'NONE',  ( -0.000000000000000000, 1.000000000000000000, 1.826024711554534160E-16 ) ) ;
#199 = ADVANCED_FACE ( 'NONE', ( #237 ), #195, .T. ) ;
#200 = DIRECTION ( 'NONE',  ( 1.000000000000000000, 0.000000000000000000, 0.000000000000000000 ) ) ;
#201 = DIRECTION ( 'NONE',  ( 0.000000000000000000, 0.000000000000000000, -1.000000000000000000 ) ) ;
#202 = CARTESIAN_POINT ( 'NONE',  ( 0.7500000000000000000, -18.99999999999999645, 19.00000000000000711 ) ) ;
#203 = LINE ( 'NONE', #188, #10 ) ;
#204 = DIRECTION ( 'NONE',  ( 0.000000000000000000, 0.000000000000000000, -1.000000000000000000 ) ) ;
#205 = APPLICATION_PROTOCOL_DEFINITION ( 'international standard', 'config_control_design', 1994, #131 ) ;
#206 = ORIENTED_EDGE ( 'NONE', *, *, #80, .F. ) ;
#207 = EDGE_CURVE ( 'NONE', #19, #213, #175, .T. ) ;
#208 = PERSON_AND_ORGANIZATION_ROLE ( 'design_supplier' ) ;
#209 = ORIENTED_EDGE ( 'NONE', *, *, #234, .T. ) ;
#210 = ORIENTED_EDGE ( 'NONE', *, *, #207, .F. ) ;
#211 = AXIS2_PLACEMENT_3D ( 'NONE', #22, #4, #38 ) ;
#212 = ADVANCED_BREP_SHAPE_REPRESENTATION ( 'Web Model 46461_18721', ( #52, #211 ), #78 ) ;
#213 = VERTEX_POINT ( 'NONE', #150 ) ;
#214 = PLANE ( 'NONE',  #33 ) ;
#215 = DATE_AND_TIME ( #115, #32 ) ;
#216 = ORIENTED_EDGE ( 'NONE', *, *, #171, .T. ) ;
#217 = DIRECTION ( 'NONE',  ( 0.000000000000000000, -0.000000000000000000, -1.000000000000000000 ) ) ;
#218 = ADVANCED_FACE ( 'NONE', ( #106 ), #69, .F. ) ;
#219 = COORDINATED_UNIVERSAL_TIME_OFFSET ( 5, 0, .BEHIND. ) ;
#220 = EDGE_CURVE ( 'NONE', #6, #2, #126, .T. ) ;
#221 = PLANE ( 'NONE',  #72 ) ;
#222 =( NAMED_UNIT ( * ) SI_UNIT ( $, .STERADIAN. ) SOLID_ANGLE_UNIT ( ) );
#223 = ORIENTED_EDGE ( 'NONE', *, *, #207, .T. ) ;
#224 = COORDINATED_UNIVERSAL_TIME_OFFSET ( 5, 0, .BEHIND. ) ;
#225 = DATE_TIME_ROLE ( 'creation_date' ) ;
#226 = APPROVAL_STATUS ( 'not_yet_approved' ) ;
#227 = PLANE ( 'NONE',  #193 ) ;
#228 = ORIENTED_EDGE ( 'NONE', *, *, #234, .F. ) ;
#229 = APPROVAL_DATE_TIME ( #24, #96 ) ;
#230 = CC_DESIGN_PERSON_AND_ORGANIZATION_ASSIGNMENT ( #180, #168, ( #59 ) ) ;
#231 = EDGE_CURVE ( 'NONE', #197, #68, #203, .T. ) ;
#232 = PRODUCT_DEFINITION ( 'UNKNOWN', '', #116, #56 ) ;
#233 = DIRECTION ( 'NONE',  ( 0.000000000000000000, 0.000000000000000000, -1.000000000000000000 ) ) ;
#234 = EDGE_CURVE ( 'NONE', #191, #2, #144, .T. ) ;
#235 = CARTESIAN_POINT ( 'NONE',  ( 0.7500000000000000000, -18.99999999999999645, 19.00000000000000711 ) ) ;
#236 = CALENDAR_DATE ( 2021, 13, 7 ) ;
#237 = FACE_OUTER_BOUND ( 'NONE', #169, .T. ) ;
ENDSEC;
END-ISO-10303-21;
