ISO-10303-21;
HEADER;
FILE_DESCRIPTION (( 'STEP AP203' ),
    '1' );
FILE_NAME ('Web Model 43636_20963.step',
    '2022-03-16T15:38:28',
    ( '' ),
    ( '' ),
    'SwSTEP 2.0',
    'SolidWorks 2021',
    '' );
FILE_SCHEMA (( 'CONFIG_CONTROL_DESIGN' ));
ENDSEC;

DATA;
#1 = VERTEX_POINT ( 'NONE', #97 ) ;
#2 = PRODUCT_RELATED_PRODUCT_CATEGORY ( 'detail', '', ( #43 ) ) ;
#3 = CC_DESIGN_PERSON_AND_ORGANIZATION_ASSIGNMENT ( #9, #114, ( #40 ) ) ;
#4 = DIRECTION ( 'NONE',  ( 0.000000000000000000, 0.000000000000000000, 1.000000000000000000 ) ) ;
#5 = ORIENTED_EDGE ( 'NONE', *, *, #91, .F. ) ;
#6 = APPROVAL_PERSON_ORGANIZATION ( #12, #111, #62 ) ;
#7 = ORIENTED_EDGE ( 'NONE', *, *, #30, .T. ) ;
#8 = DIRECTION ( 'NONE',  ( -1.000000000000000000, 0.000000000000000000, 0.000000000000000000 ) ) ;
#9 = PERSON_AND_ORGANIZATION ( #36, #59 ) ;
#10 = EDGE_CURVE ( 'NONE', #112, #84, #25, .T. ) ;
#11 = LINE ( 'NONE', #104, #54 ) ;
#12 = PERSON_AND_ORGANIZATION ( #36, #59 ) ;
#13 = AXIS2_PLACEMENT_3D ( 'NONE', #89, #116, #128 ) ;
#14 = PERSON_AND_ORGANIZATION ( #36, #59 ) ;
#15 = SHAPE_DEFINITION_REPRESENTATION ( #82, #107 ) ;
#16 = PERSON_AND_ORGANIZATION_ROLE ( 'design_supplier' ) ;
#17 = CARTESIAN_POINT ( 'NONE',  ( 0.000000000000000000, 0.000000000000000000, 0.000000000000000000 ) ) ;
#18 = EDGE_CURVE ( 'NONE', #19, #1, #163, .T. ) ;
#19 = VERTEX_POINT ( 'NONE', #113 ) ;
#20 = ORIENTED_EDGE ( 'NONE', *, *, #30, .F. ) ;
#21 = ORIENTED_EDGE ( 'NONE', *, *, #91, .T. ) ;
#22 = CARTESIAN_POINT ( 'NONE',  ( 0.000000000000000000, 0.000000000000000000, 0.5000000000000000000 ) ) ;
#23 = APPROVAL_DATE_TIME ( #139, #111 ) ;
#24 = FACE_OUTER_BOUND ( 'NONE', #73, .T. ) ;
#25 = CIRCLE ( 'NONE', #68, 12.69999999999999929 ) ;
#26 =( GEOMETRIC_REPRESENTATION_CONTEXT ( 3 ) GLOBAL_UNCERTAINTY_ASSIGNED_CONTEXT ( ( #152 ) ) GLOBAL_UNIT_ASSIGNED_CONTEXT ( ( #141, #153, #156 ) ) REPRESENTATION_CONTEXT ( 'NONE', 'WORKASPACE' ) );
#27 = DIRECTION ( 'NONE',  ( 1.000000000000000000, 0.000000000000000000, 0.000000000000000000 ) ) ;
#28 = FACE_OUTER_BOUND ( 'NONE', #135, .T. ) ;
#29 = CALENDAR_DATE ( 2022, 16, 3 ) ;
#30 = EDGE_CURVE ( 'NONE', #1, #19, #32, .T. ) ;
#31 = APPROVAL_DATE_TIME ( #145, #161 ) ;
#32 = CIRCLE ( 'NONE', #74, 12.69999999999999929 ) ;
#33 = ORIENTED_EDGE ( 'NONE', *, *, #127, .F. ) ;
#34 = AXIS2_PLACEMENT_3D ( 'NONE', #93, #53, #51 ) ;
#35 = LOCAL_TIME ( 11, 38, 28.00000000000000000, #167 ) ;
#36 = PERSON ( 'UNSPECIFIED', 'UNSPECIFIED', 'UNSPECIFIED', ('UNSPECIFIED'), ('UNSPECIFIED'), ('UNSPECIFIED') ) ;
#37 = CARTESIAN_POINT ( 'NONE',  ( 0.000000000000000000, 0.000000000000000000, 0.5000000000000000000 ) ) ;
#38 = CC_DESIGN_DATE_AND_TIME_ASSIGNMENT ( #131, #174, ( #118 ) ) ;
#39 = CARTESIAN_POINT ( 'NONE',  ( 12.69999999999999929, 1.555301434917138433E-15, 0.5000000000000000000 ) ) ;
#40 = PRODUCT_DEFINITION ( 'UNKNOWN', '', #60, #92 ) ;
#41 = CALENDAR_DATE ( 2022, 16, 3 ) ;
#42 = CALENDAR_DATE ( 2022, 16, 3 ) ;
#43 = PRODUCT ( 'Web Model 43636_20963', 'Web Model 43636_20963', '', ( #140 ) ) ;
#44 = ADVANCED_FACE ( 'NONE', ( #164 ), #87, .T. ) ;
#45 = PERSON_AND_ORGANIZATION_ROLE ( 'classification_officer' ) ;
#46 = APPROVAL_ROLE ( '' ) ;
#47 = EDGE_LOOP ( 'NONE', ( #20, #21, #146, #83 ) ) ;
#48 = DIRECTION ( 'NONE',  ( 1.000000000000000000, 0.000000000000000000, 0.000000000000000000 ) ) ;
#49 = LOCAL_TIME ( 11, 38, 28.00000000000000000, #67 ) ;
#50 = DIRECTION ( 'NONE',  ( 1.000000000000000000, 0.000000000000000000, -0.000000000000000000 ) ) ;
#51 = DIRECTION ( 'NONE',  ( 1.000000000000000000, 0.000000000000000000, -0.000000000000000000 ) ) ;
#52 = CARTESIAN_POINT ( 'NONE',  ( 0.000000000000000000, 0.000000000000000000, 0.000000000000000000 ) ) ;
#53 = DIRECTION ( 'NONE',  ( 0.000000000000000000, 0.000000000000000000, 1.000000000000000000 ) ) ;
#54 = VECTOR ( 'NONE', #94, 1000.000000000000000 ) ;
#55 = PLANE ( 'NONE',  #105 ) ;
#56 = APPROVAL_DATE_TIME ( #70, #158 ) ;
#57 = COORDINATED_UNIVERSAL_TIME_OFFSET ( 5, 0, .BEHIND. ) ;
#58 = AXIS2_PLACEMENT_3D ( 'NONE', #52, #75, #27 ) ;
#59 = ORGANIZATION ( 'UNSPECIFIED', 'UNSPECIFIED', '' ) ;
#60 = PRODUCT_DEFINITION_FORMATION_WITH_SPECIFIED_SOURCE ( 'ANY', '', #43, .NOT_KNOWN. ) ;
#61 = EDGE_LOOP ( 'NONE', ( #126, #7 ) ) ;
#62 = APPROVAL_ROLE ( '' ) ;
#63 = DIRECTION ( 'NONE',  ( -0.000000000000000000, -0.000000000000000000, -1.000000000000000000 ) ) ;
#64 = ADVANCED_FACE ( 'NONE', ( #24 ), #55, .F. ) ;
#65 = APPROVAL_PERSON_ORGANIZATION ( #157, #158, #120 ) ;
#66 = APPROVAL_STATUS ( 'not_yet_approved' ) ;
#67 = COORDINATED_UNIVERSAL_TIME_OFFSET ( 5, 0, .BEHIND. ) ;
#68 = AXIS2_PLACEMENT_3D ( 'NONE', #17, #136, #71 ) ;
#69 = CC_DESIGN_APPROVAL ( #161, ( #118 ) ) ;
#70 = DATE_AND_TIME ( #42, #49 ) ;
#71 = DIRECTION ( 'NONE',  ( 1.000000000000000000, 0.000000000000000000, 0.000000000000000000 ) ) ;
#72 = DIRECTION ( 'NONE',  ( 0.000000000000000000, 0.000000000000000000, 1.000000000000000000 ) ) ;
#73 = EDGE_LOOP ( 'NONE', ( #33, #101 ) ) ;
#74 = AXIS2_PLACEMENT_3D ( 'NONE', #125, #4, #48 ) ;
#75 = DIRECTION ( 'NONE',  ( 0.000000000000000000, 0.000000000000000000, 1.000000000000000000 ) ) ;
#76 = CARTESIAN_POINT ( 'NONE',  ( 0.000000000000000000, 0.000000000000000000, 0.000000000000000000 ) ) ;
#77 = CYLINDRICAL_SURFACE ( 'NONE', #147, 12.69999999999999929 ) ;
#78 = APPROVAL_PERSON_ORGANIZATION ( #110, #161, #46 ) ;
#79 = COORDINATED_UNIVERSAL_TIME_OFFSET ( 5, 0, .BEHIND. ) ;
#80 = CC_DESIGN_DATE_AND_TIME_ASSIGNMENT ( #130, #123, ( #40 ) ) ;
#81 = SECURITY_CLASSIFICATION_LEVEL ( 'unclassified' ) ;
#82 = PRODUCT_DEFINITION_SHAPE ( 'NONE', 'NONE',  #40 ) ;
#83 = ORIENTED_EDGE ( 'NONE', *, *, #122, .F. ) ;
#84 = VERTEX_POINT ( 'NONE', #117 ) ;
#85 = CC_DESIGN_PERSON_AND_ORGANIZATION_ASSIGNMENT ( #14, #45, ( #118 ) ) ;
#86 = ORIENTED_EDGE ( 'NONE', *, *, #127, .T. ) ;
#87 = CYLINDRICAL_SURFACE ( 'NONE', #175, 12.69999999999999929 ) ;
#88 = PERSON_AND_ORGANIZATION ( #36, #59 ) ;
#89 = CARTESIAN_POINT ( 'NONE',  ( 0.000000000000000000, 0.000000000000000000, 0.000000000000000000 ) ) ;
#90 = AXIS2_PLACEMENT_3D ( 'NONE', #124, #72, #148 ) ;
#91 = EDGE_CURVE ( 'NONE', #1, #112, #168, .T. ) ;
#92 = DESIGN_CONTEXT ( 'detailed design', #155, 'design' ) ;
#93 = CARTESIAN_POINT ( 'NONE',  ( 0.000000000000000000, 0.000000000000000000, 0.5000000000000000000 ) ) ;
#94 = DIRECTION ( 'NONE',  ( -0.000000000000000000, -0.000000000000000000, -1.000000000000000000 ) ) ;
#95 = CALENDAR_DATE ( 2022, 16, 3 ) ;
#96 = ADVANCED_FACE ( 'NONE', ( #150 ), #106, .T. ) ;
#97 = CARTESIAN_POINT ( 'NONE',  ( 12.69999999999999929, 1.555301434917138433E-15, 0.5000000000000000000 ) ) ;
#98 = CC_DESIGN_PERSON_AND_ORGANIZATION_ASSIGNMENT ( #134, #16, ( #60 ) ) ;
#99 = ORIENTED_EDGE ( 'NONE', *, *, #122, .T. ) ;
#100 = CLOSED_SHELL ( 'NONE', ( #44, #169, #96, #64 ) ) ;
#101 = ORIENTED_EDGE ( 'NONE', *, *, #10, .F. ) ;
#102 = APPLICATION_PROTOCOL_DEFINITION ( 'international standard', 'config_control_design', 1994, #155 ) ;
#103 = DIRECTION ( 'NONE',  ( 0.000000000000000000, 0.000000000000000000, 1.000000000000000000 ) ) ;
#104 = CARTESIAN_POINT ( 'NONE',  ( -12.69999999999999929, 0.000000000000000000, 0.5000000000000000000 ) ) ;
#105 = AXIS2_PLACEMENT_3D ( 'NONE', #76, #103, #50 ) ;
#106 = PLANE ( 'NONE',  #34 ) ;
#107 = ADVANCED_BREP_SHAPE_REPRESENTATION ( 'Web Model 43636_20963', ( #132, #13 ), #26 ) ;
#108 = APPROVAL_STATUS ( 'not_yet_approved' ) ;
#109 = CALENDAR_DATE ( 2022, 16, 3 ) ;
#110 = PERSON_AND_ORGANIZATION ( #36, #59 ) ;
#111 = APPROVAL ( #129, 'UNSPECIFIED' ) ;
#112 = VERTEX_POINT ( 'NONE', #170 ) ;
#113 = CARTESIAN_POINT ( 'NONE',  ( -12.69999999999999929, 0.000000000000000000, 0.5000000000000000000 ) ) ;
#114 = PERSON_AND_ORGANIZATION_ROLE ( 'creator' ) ;
#115 = CC_DESIGN_PERSON_AND_ORGANIZATION_ASSIGNMENT ( #119, #172, ( #60 ) ) ;
#116 = DIRECTION ( 'NONE',  ( 0.000000000000000000, 0.000000000000000000, 1.000000000000000000 ) ) ;
#117 = CARTESIAN_POINT ( 'NONE',  ( -12.69999999999999929, 0.000000000000000000, 0.000000000000000000 ) ) ;
#118 = SECURITY_CLASSIFICATION ( '', '', #81 ) ;
#119 = PERSON_AND_ORGANIZATION ( #36, #59 ) ;
#120 = APPROVAL_ROLE ( '' ) ;
#121 = LOCAL_TIME ( 11, 38, 28.00000000000000000, #79 ) ;
#122 = EDGE_CURVE ( 'NONE', #19, #84, #11, .T. ) ;
#123 = DATE_TIME_ROLE ( 'creation_date' ) ;
#124 = CARTESIAN_POINT ( 'NONE',  ( 0.000000000000000000, 0.000000000000000000, 0.5000000000000000000 ) ) ;
#125 = CARTESIAN_POINT ( 'NONE',  ( 0.000000000000000000, 0.000000000000000000, 0.5000000000000000000 ) ) ;
#126 = ORIENTED_EDGE ( 'NONE', *, *, #18, .T. ) ;
#127 = EDGE_CURVE ( 'NONE', #84, #112, #138, .T. ) ;
#128 = DIRECTION ( 'NONE',  ( 1.000000000000000000, 0.000000000000000000, 0.000000000000000000 ) ) ;
#129 = APPROVAL_STATUS ( 'not_yet_approved' ) ;
#130 = DATE_AND_TIME ( #29, #121 ) ;
#131 = DATE_AND_TIME ( #95, #160 ) ;
#132 = MANIFOLD_SOLID_BREP ( 'Boss-Extrude1', #100 ) ;
#133 = CC_DESIGN_APPROVAL ( #111, ( #40 ) ) ;
#134 = PERSON_AND_ORGANIZATION ( #36, #59 ) ;
#135 = EDGE_LOOP ( 'NONE', ( #5, #162, #99, #86 ) ) ;
#136 = DIRECTION ( 'NONE',  ( 0.000000000000000000, 0.000000000000000000, 1.000000000000000000 ) ) ;
#137 = CC_DESIGN_PERSON_AND_ORGANIZATION_ASSIGNMENT ( #88, #165, ( #43 ) ) ;
#138 = CIRCLE ( 'NONE', #58, 12.69999999999999929 ) ;
#139 = DATE_AND_TIME ( #41, #35 ) ;
#140 = MECHANICAL_CONTEXT ( 'NONE', #173, 'mechanical' ) ;
#141 =( LENGTH_UNIT ( ) NAMED_UNIT ( * ) SI_UNIT ( .MILLI., .METRE. ) );
#142 = LOCAL_TIME ( 11, 38, 28.00000000000000000, #57 ) ;
#143 = APPLICATION_PROTOCOL_DEFINITION ( 'international standard', 'config_control_design', 1994, #173 ) ;
#144 = DIRECTION ( 'NONE',  ( -1.000000000000000000, 0.000000000000000000, 0.000000000000000000 ) ) ;
#145 = DATE_AND_TIME ( #109, #142 ) ;
#146 = ORIENTED_EDGE ( 'NONE', *, *, #10, .T. ) ;
#147 = AXIS2_PLACEMENT_3D ( 'NONE', #37, #166, #8 ) ;
#148 = DIRECTION ( 'NONE',  ( 1.000000000000000000, 0.000000000000000000, 0.000000000000000000 ) ) ;
#149 = CC_DESIGN_APPROVAL ( #158, ( #60 ) ) ;
#150 = FACE_OUTER_BOUND ( 'NONE', #61, .T. ) ;
#151 = DIRECTION ( 'NONE',  ( -0.000000000000000000, -0.000000000000000000, -1.000000000000000000 ) ) ;
#152 = UNCERTAINTY_MEASURE_WITH_UNIT (LENGTH_MEASURE( 1.000000000000000082E-05 ), #141, 'distance_accuracy_value', 'NONE');
#153 =( NAMED_UNIT ( * ) PLANE_ANGLE_UNIT ( ) SI_UNIT ( $, .RADIAN. ) );
#154 = CC_DESIGN_SECURITY_CLASSIFICATION ( #118, ( #60 ) ) ;
#155 = APPLICATION_CONTEXT ( 'configuration controlled 3d designs of mechanical parts and assemblies' ) ;
#156 =( NAMED_UNIT ( * ) SI_UNIT ( $, .STERADIAN. ) SOLID_ANGLE_UNIT ( ) );
#157 = PERSON_AND_ORGANIZATION ( #36, #59 ) ;
#158 = APPROVAL ( #66, 'UNSPECIFIED' ) ;
#159 = COORDINATED_UNIVERSAL_TIME_OFFSET ( 5, 0, .BEHIND. ) ;
#160 = LOCAL_TIME ( 11, 38, 28.00000000000000000, #159 ) ;
#161 = APPROVAL ( #108, 'UNSPECIFIED' ) ;
#162 = ORIENTED_EDGE ( 'NONE', *, *, #18, .F. ) ;
#163 = CIRCLE ( 'NONE', #90, 12.69999999999999929 ) ;
#164 = FACE_OUTER_BOUND ( 'NONE', #47, .T. ) ;
#165 = PERSON_AND_ORGANIZATION_ROLE ( 'design_owner' ) ;
#166 = DIRECTION ( 'NONE',  ( -0.000000000000000000, -0.000000000000000000, -1.000000000000000000 ) ) ;
#167 = COORDINATED_UNIVERSAL_TIME_OFFSET ( 5, 0, .BEHIND. ) ;
#168 = LINE ( 'NONE', #39, #171 ) ;
#169 = ADVANCED_FACE ( 'NONE', ( #28 ), #77, .T. ) ;
#170 = CARTESIAN_POINT ( 'NONE',  ( 12.69999999999999929, 1.555301434917138433E-15, 0.000000000000000000 ) ) ;
#171 = VECTOR ( 'NONE', #151, 1000.000000000000000 ) ;
#172 = PERSON_AND_ORGANIZATION_ROLE ( 'creator' ) ;
#173 = APPLICATION_CONTEXT ( 'configuration controlled 3d designs of mechanical parts and assemblies' ) ;
#174 = DATE_TIME_ROLE ( 'classification_date' ) ;
#175 = AXIS2_PLACEMENT_3D ( 'NONE', #22, #63, #144 ) ;
ENDSEC;
END-ISO-10303-21;
