ISO-10303-21;
HEADER;
FILE_DESCRIPTION (( 'STEP AP203' ),
    '1' );
FILE_NAME ('Web Model 84484.STEP',
    '2017-02-01T15:49:56',
    ( '' ),
    ( '' ),
    'SwSTEP 2.0',
    'SolidWorks 2016',
    '' );
FILE_SCHEMA (( 'CONFIG_CONTROL_DESIGN' ));
ENDSEC;

DATA;
#1 = DIRECTION ( 'NONE',  ( -0.0000000000000000000, -0.0000000000000000000, -1.000000000000000000 ) ) ;
#2 = CARTESIAN_POINT ( 'NONE',  ( 6.250000000000000000, 7.654042494670957600E-016, 2.000000000000000000 ) ) ;
#3 = CC_DESIGN_PERSON_AND_ORGANIZATION_ASSIGNMENT ( #82, #88, ( #169 ) ) ;
#4 = DIRECTION ( 'NONE',  ( -0.0000000000000000000, -0.0000000000000000000, -1.000000000000000000 ) ) ;
#5 = COORDINATED_UNIVERSAL_TIME_OFFSET ( 5, 0, .BEHIND. ) ;
#6 = SECURITY_CLASSIFICATION_LEVEL ( 'unclassified' ) ;
#7 = EDGE_CURVE ( 'NONE', #144, #132, #62, .T. ) ;
#8 = PERSON_AND_ORGANIZATION ( #65, #134 ) ;
#9 = ORIENTED_EDGE ( 'NONE', *, *, #112, .F. ) ;
#10 = APPLICATION_CONTEXT ( 'configuration controlled 3d designs of mechanical parts and assemblies' ) ;
#11 = DATE_AND_TIME ( #47, #66 ) ;
#12 = CARTESIAN_POINT ( 'NONE',  ( 0.0000000000000000000, 0.0000000000000000000, 0.0000000000000000000 ) ) ;
#13 = CC_DESIGN_SECURITY_CLASSIFICATION ( #108, ( #169 ) ) ;
#14 = APPROVAL_PERSON_ORGANIZATION ( #140, #101, #155 ) ;
#15 = DIRECTION ( 'NONE',  ( 1.000000000000000000, 0.0000000000000000000, 0.0000000000000000000 ) ) ;
#16 = CARTESIAN_POINT ( 'NONE',  ( 0.0000000000000000000, 0.0000000000000000000, 2.000000000000000000 ) ) ;
#17 = ORIENTED_EDGE ( 'NONE', *, *, #142, .F. ) ;
#18 = CALENDAR_DATE ( 2017, 1, 2 ) ;
#19 = CC_DESIGN_DATE_AND_TIME_ASSIGNMENT ( #164, #111, ( #94 ) ) ;
#20 = APPROVAL_STATUS ( 'not_yet_approved' ) ;
#21 = ORIENTED_EDGE ( 'NONE', *, *, #112, .T. ) ;
#22 = ORIENTED_EDGE ( 'NONE', *, *, #142, .T. ) ;
#23 = ORIENTED_EDGE ( 'NONE', *, *, #133, .F. ) ;
#24 = EDGE_LOOP ( 'NONE', ( #141, #153 ) ) ;
#25 = PRODUCT_RELATED_PRODUCT_CATEGORY ( 'detail', '', ( #51 ) ) ;
#26 = DIRECTION ( 'NONE',  ( 0.0000000000000000000, 0.0000000000000000000, 1.000000000000000000 ) ) ;
#27 = DIRECTION ( 'NONE',  ( -0.0000000000000000000, -0.0000000000000000000, -1.000000000000000000 ) ) ;
#28 = DIRECTION ( 'NONE',  ( -1.000000000000000000, 0.0000000000000000000, 0.0000000000000000000 ) ) ;
#29 = CARTESIAN_POINT ( 'NONE',  ( 0.0000000000000000000, 0.0000000000000000000, 0.0000000000000000000 ) ) ;
#30 = EDGE_LOOP ( 'NONE', ( #42, #23, #21, #22 ) ) ;
#31 = AXIS2_PLACEMENT_3D ( 'NONE', #29, #126, #58 ) ;
#32 = APPROVAL_ROLE ( '' ) ;
#33 = CC_DESIGN_APPROVAL ( #44, ( #108 ) ) ;
#34 = DATE_AND_TIME ( #18, #55 ) ;
#35 = ADVANCED_FACE ( 'NONE', ( #63 ), #149, .F. ) ;
#36 = APPROVAL ( #118, 'UNSPECIFIED' ) ;
#37 = FACE_OUTER_BOUND ( 'NONE', #24, .T. ) ;
#38 = CARTESIAN_POINT ( 'NONE',  ( 0.0000000000000000000, 0.0000000000000000000, 2.000000000000000000 ) ) ;
#39 = CARTESIAN_POINT ( 'NONE',  ( -6.250000000000000000, 0.0000000000000000000, 2.000000000000000000 ) ) ;
#40 = EDGE_CURVE ( 'NONE', #144, #43, #122, .T. ) ;
#41 = AXIS2_PLACEMENT_3D ( 'NONE', #136, #56, #95 ) ;
#42 = ORIENTED_EDGE ( 'NONE', *, *, #40, .F. ) ;
#43 = VERTEX_POINT ( 'NONE', #70 ) ;
#44 = APPROVAL ( #156, 'UNSPECIFIED' ) ;
#45 = PRODUCT_DEFINITION_SHAPE ( 'NONE', 'NONE',  #94 ) ;
#46 = CLOSED_SHELL ( 'NONE', ( #172, #92, #130, #35 ) ) ;
#47 = CALENDAR_DATE ( 2017, 1, 2 ) ;
#48 = ORIENTED_EDGE ( 'NONE', *, *, #40, .T. ) ;
#49 = CC_DESIGN_APPROVAL ( #101, ( #169 ) ) ;
#50 = APPROVAL_DATE_TIME ( #34, #36 ) ;
#51 = PRODUCT ( 'Web Model 84484', 'Web Model 84484', '', ( #173 ) ) ;
#52 = SHAPE_DEFINITION_REPRESENTATION ( #45, #61 ) ;
#53 = APPROVAL_ROLE ( '' ) ;
#54 = FACE_OUTER_BOUND ( 'NONE', #137, .T. ) ;
#55 = LOCAL_TIME ( 10, 49, 56.00000000000000000, #5 ) ;
#56 = DIRECTION ( 'NONE',  ( -0.0000000000000000000, -0.0000000000000000000, -1.000000000000000000 ) ) ;
#57 = CARTESIAN_POINT ( 'NONE',  ( 0.0000000000000000000, 0.0000000000000000000, 0.0000000000000000000 ) ) ;
#58 = DIRECTION ( 'NONE',  ( 1.000000000000000000, 0.0000000000000000000, 0.0000000000000000000 ) ) ;
#59 = AXIS2_PLACEMENT_3D ( 'NONE', #125, #4, #28 ) ;
#60 = APPROVAL_PERSON_ORGANIZATION ( #115, #36, #53 ) ;
#61 = ADVANCED_BREP_SHAPE_REPRESENTATION ( 'Web Model 84484', ( #86, #143 ), #77 ) ;
#62 = CIRCLE ( 'NONE', #150, 6.250000000000000000 ) ;
#63 = FACE_OUTER_BOUND ( 'NONE', #147, .T. ) ;
#64 = CC_DESIGN_DATE_AND_TIME_ASSIGNMENT ( #154, #89, ( #108 ) ) ;
#65 = PERSON ( 'UNSPECIFIED', 'UNSPECIFIED', 'UNSPECIFIED', ('UNSPECIFIED'), ('UNSPECIFIED'), ('UNSPECIFIED') ) ;
#66 = LOCAL_TIME ( 10, 49, 56.00000000000000000, #93 ) ;
#67 = APPROVAL_PERSON_ORGANIZATION ( #128, #44, #32 ) ;
#68 = CALENDAR_DATE ( 2017, 1, 2 ) ;
#69 = CC_DESIGN_PERSON_AND_ORGANIZATION_ASSIGNMENT ( #152, #102, ( #169 ) ) ;
#70 = CARTESIAN_POINT ( 'NONE',  ( 6.250000000000000000, 7.654042494670957600E-016, 0.0000000000000000000 ) ) ;
#71 = CARTESIAN_POINT ( 'NONE',  ( 0.0000000000000000000, 0.0000000000000000000, 0.0000000000000000000 ) ) ;
#72 = DIRECTION ( 'NONE',  ( 0.0000000000000000000, 0.0000000000000000000, 1.000000000000000000 ) ) ;
#73 = DIRECTION ( 'NONE',  ( 1.000000000000000000, 0.0000000000000000000, -0.0000000000000000000 ) ) ;
#74 = ORIENTED_EDGE ( 'NONE', *, *, #7, .F. ) ;
#75 = CALENDAR_DATE ( 2017, 1, 2 ) ;
#76 = DESIGN_CONTEXT ( 'detailed design', #10, 'design' ) ;
#77 =( GEOMETRIC_REPRESENTATION_CONTEXT ( 3 ) GLOBAL_UNCERTAINTY_ASSIGNED_CONTEXT ( ( #120 ) ) GLOBAL_UNIT_ASSIGNED_CONTEXT ( ( #163, #116, #175 ) ) REPRESENTATION_CONTEXT ( 'NONE', 'WORKASPACE' ) );
#78 = CIRCLE ( 'NONE', #90, 6.250000000000000000 ) ;
#79 = PERSON_AND_ORGANIZATION ( #65, #134 ) ;
#80 = APPLICATION_PROTOCOL_DEFINITION ( 'international standard', 'config_control_design', 1994, #131 ) ;
#81 = EDGE_CURVE ( 'NONE', #43, #96, #160, .T. ) ;
#82 = PERSON_AND_ORGANIZATION ( #65, #134 ) ;
#83 = DIRECTION ( 'NONE',  ( 1.000000000000000000, 0.0000000000000000000, 0.0000000000000000000 ) ) ;
#84 = DIRECTION ( 'NONE',  ( 0.0000000000000000000, 0.0000000000000000000, 1.000000000000000000 ) ) ;
#85 = ORIENTED_EDGE ( 'NONE', *, *, #81, .F. ) ;
#86 = MANIFOLD_SOLID_BREP ( 'Extrude1', #46 ) ;
#87 = CALENDAR_DATE ( 2017, 1, 2 ) ;
#88 = PERSON_AND_ORGANIZATION_ROLE ( 'design_supplier' ) ;
#89 = DATE_TIME_ROLE ( 'classification_date' ) ;
#90 = AXIS2_PLACEMENT_3D ( 'NONE', #16, #109, #99 ) ;
#91 = DATE_AND_TIME ( #75, #110 ) ;
#92 = ADVANCED_FACE ( 'NONE', ( #170 ), #151, .T. ) ;
#93 = COORDINATED_UNIVERSAL_TIME_OFFSET ( 5, 0, .BEHIND. ) ;
#94 = PRODUCT_DEFINITION ( 'UNKNOWN', '', #169, #76 ) ;
#95 = DIRECTION ( 'NONE',  ( -1.000000000000000000, 0.0000000000000000000, 0.0000000000000000000 ) ) ;
#96 = VERTEX_POINT ( 'NONE', #139 ) ;
#97 = CARTESIAN_POINT ( 'NONE',  ( 0.0000000000000000000, 0.0000000000000000000, 2.000000000000000000 ) ) ;
#98 = CC_DESIGN_APPROVAL ( #36, ( #94 ) ) ;
#99 = DIRECTION ( 'NONE',  ( 1.000000000000000000, 0.0000000000000000000, 0.0000000000000000000 ) ) ;
#100 = COORDINATED_UNIVERSAL_TIME_OFFSET ( 5, 0, .BEHIND. ) ;
#101 = APPROVAL ( #20, 'UNSPECIFIED' ) ;
#102 = PERSON_AND_ORGANIZATION_ROLE ( 'creator' ) ;
#103 = PERSON_AND_ORGANIZATION_ROLE ( 'creator' ) ;
#104 = AXIS2_PLACEMENT_3D ( 'NONE', #97, #72, #73 ) ;
#105 = APPLICATION_PROTOCOL_DEFINITION ( 'international standard', 'config_control_design', 1994, #10 ) ;
#106 = CC_DESIGN_PERSON_AND_ORGANIZATION_ASSIGNMENT ( #8, #117, ( #51 ) ) ;
#107 = ORIENTED_EDGE ( 'NONE', *, *, #81, .T. ) ;
#108 = SECURITY_CLASSIFICATION ( '', '', #6 ) ;
#109 = DIRECTION ( 'NONE',  ( 0.0000000000000000000, 0.0000000000000000000, 1.000000000000000000 ) ) ;
#110 = LOCAL_TIME ( 10, 49, 56.00000000000000000, #161 ) ;
#111 = DATE_TIME_ROLE ( 'creation_date' ) ;
#112 = EDGE_CURVE ( 'NONE', #132, #96, #124, .T. ) ;
#113 = VECTOR ( 'NONE', #27, 1000.000000000000000 ) ;
#114 = CC_DESIGN_PERSON_AND_ORGANIZATION_ASSIGNMENT ( #79, #103, ( #94 ) ) ;
#115 = PERSON_AND_ORGANIZATION ( #65, #134 ) ;
#116 =( NAMED_UNIT ( * ) PLANE_ANGLE_UNIT ( ) SI_UNIT ( $, .RADIAN. ) );
#117 = PERSON_AND_ORGANIZATION_ROLE ( 'design_owner' ) ;
#118 = APPROVAL_STATUS ( 'not_yet_approved' ) ;
#119 = CIRCLE ( 'NONE', #31, 6.250000000000000000 ) ;
#120 = UNCERTAINTY_MEASURE_WITH_UNIT (LENGTH_MEASURE( 1.000000000000000100E-005 ), #163, 'distance_accuracy_value', 'NONE');
#121 = CARTESIAN_POINT ( 'NONE',  ( 6.250000000000000000, 7.654042494670957600E-016, 2.000000000000000000 ) ) ;
#122 = LINE ( 'NONE', #121, #127 ) ;
#123 = DIRECTION ( 'NONE',  ( 0.0000000000000000000, 0.0000000000000000000, 1.000000000000000000 ) ) ;
#124 = LINE ( 'NONE', #39, #113 ) ;
#125 = CARTESIAN_POINT ( 'NONE',  ( 0.0000000000000000000, 0.0000000000000000000, 2.000000000000000000 ) ) ;
#126 = DIRECTION ( 'NONE',  ( 0.0000000000000000000, 0.0000000000000000000, 1.000000000000000000 ) ) ;
#127 = VECTOR ( 'NONE', #1, 1000.000000000000000 ) ;
#128 = PERSON_AND_ORGANIZATION ( #65, #134 ) ;
#129 = AXIS2_PLACEMENT_3D ( 'NONE', #71, #123, #138 ) ;
#130 = ADVANCED_FACE ( 'NONE', ( #37 ), #167, .T. ) ;
#131 = APPLICATION_CONTEXT ( 'configuration controlled 3d designs of mechanical parts and assemblies' ) ;
#132 = VERTEX_POINT ( 'NONE', #148 ) ;
#133 = EDGE_CURVE ( 'NONE', #132, #144, #78, .T. ) ;
#134 = ORGANIZATION ( 'UNSPECIFIED', 'UNSPECIFIED', '' ) ;
#135 = PERSON_AND_ORGANIZATION ( #65, #134 ) ;
#136 = CARTESIAN_POINT ( 'NONE',  ( 0.0000000000000000000, 0.0000000000000000000, 2.000000000000000000 ) ) ;
#137 = EDGE_LOOP ( 'NONE', ( #74, #48, #107, #9 ) ) ;
#138 = DIRECTION ( 'NONE',  ( 1.000000000000000000, 0.0000000000000000000, -0.0000000000000000000 ) ) ;
#139 = CARTESIAN_POINT ( 'NONE',  ( -6.250000000000000000, 0.0000000000000000000, 0.0000000000000000000 ) ) ;
#140 = PERSON_AND_ORGANIZATION ( #65, #134 ) ;
#141 = ORIENTED_EDGE ( 'NONE', *, *, #133, .T. ) ;
#142 = EDGE_CURVE ( 'NONE', #96, #43, #119, .T. ) ;
#143 = AXIS2_PLACEMENT_3D ( 'NONE', #12, #26, #83 ) ;
#144 = VERTEX_POINT ( 'NONE', #2 ) ;
#145 = CYLINDRICAL_SURFACE ( 'NONE', #59, 6.250000000000000000 ) ;
#146 = LOCAL_TIME ( 10, 49, 56.00000000000000000, #174 ) ;
#147 = EDGE_LOOP ( 'NONE', ( #17, #85 ) ) ;
#148 = CARTESIAN_POINT ( 'NONE',  ( -6.250000000000000000, 0.0000000000000000000, 2.000000000000000000 ) ) ;
#149 = PLANE ( 'NONE',  #129 ) ;
#150 = AXIS2_PLACEMENT_3D ( 'NONE', #38, #84, #15 ) ;
#151 = CYLINDRICAL_SURFACE ( 'NONE', #41, 6.250000000000000000 ) ;
#152 = PERSON_AND_ORGANIZATION ( #65, #134 ) ;
#153 = ORIENTED_EDGE ( 'NONE', *, *, #7, .T. ) ;
#154 = DATE_AND_TIME ( #87, #159 ) ;
#155 = APPROVAL_ROLE ( '' ) ;
#156 = APPROVAL_STATUS ( 'not_yet_approved' ) ;
#157 = CC_DESIGN_PERSON_AND_ORGANIZATION_ASSIGNMENT ( #135, #168, ( #108 ) ) ;
#158 = APPROVAL_DATE_TIME ( #91, #44 ) ;
#159 = LOCAL_TIME ( 10, 49, 56.00000000000000000, #100 ) ;
#160 = CIRCLE ( 'NONE', #162, 6.250000000000000000 ) ;
#161 = COORDINATED_UNIVERSAL_TIME_OFFSET ( 5, 0, .BEHIND. ) ;
#162 = AXIS2_PLACEMENT_3D ( 'NONE', #57, #166, #165 ) ;
#163 =( LENGTH_UNIT ( ) NAMED_UNIT ( * ) SI_UNIT ( .MILLI., .METRE. ) );
#164 = DATE_AND_TIME ( #68, #146 ) ;
#165 = DIRECTION ( 'NONE',  ( 1.000000000000000000, 0.0000000000000000000, 0.0000000000000000000 ) ) ;
#166 = DIRECTION ( 'NONE',  ( 0.0000000000000000000, 0.0000000000000000000, 1.000000000000000000 ) ) ;
#167 = PLANE ( 'NONE',  #104 ) ;
#168 = PERSON_AND_ORGANIZATION_ROLE ( 'classification_officer' ) ;
#169 = PRODUCT_DEFINITION_FORMATION_WITH_SPECIFIED_SOURCE ( 'ANY', '', #51, .NOT_KNOWN. ) ;
#170 = FACE_OUTER_BOUND ( 'NONE', #30, .T. ) ;
#171 = APPROVAL_DATE_TIME ( #11, #101 ) ;
#172 = ADVANCED_FACE ( 'NONE', ( #54 ), #145, .T. ) ;
#173 = MECHANICAL_CONTEXT ( 'NONE', #131, 'mechanical' ) ;
#174 = COORDINATED_UNIVERSAL_TIME_OFFSET ( 5, 0, .BEHIND. ) ;
#175 =( NAMED_UNIT ( * ) SI_UNIT ( $, .STERADIAN. ) SOLID_ANGLE_UNIT ( ) );
ENDSEC;
END-ISO-10303-21;
