ISO-10303-21;
HEADER;
FILE_DESCRIPTION (( 'STEP AP203' ),
    '1' );
FILE_NAME ('Web Model 68398.STEP',
    '2017-01-31T19:56:14',
    ( '' ),
    ( '' ),
    'SwSTEP 2.0',
    'SolidWorks 2016',
    '' );
FILE_SCHEMA (( 'CONFIG_CONTROL_DESIGN' ));
ENDSEC;

DATA;
#1 = ORIENTED_EDGE ( 'NONE', *, *, #15, .T. ) ;
#2 = DIRECTION ( 'NONE',  ( -1.000000000000000000, 0.0000000000000000000, 0.0000000000000000000 ) ) ;
#3 = DIRECTION ( 'NONE',  ( -1.000000000000000000, 0.0000000000000000000, 0.0000000000000000000 ) ) ;
#4 = VERTEX_POINT ( 'NONE', #60 ) ;
#5 = PLANE ( 'NONE',  #237 ) ;
#6 = EDGE_CURVE ( 'NONE', #58, #74, #89, .T. ) ;
#7 = CARTESIAN_POINT ( 'NONE',  ( -37.50000000000000000, -37.50000000000000700, 0.0000000000000000000 ) ) ;
#8 = COORDINATED_UNIVERSAL_TIME_OFFSET ( 5, 0, .BEHIND. ) ;
#9 = LINE ( 'NONE', #38, #120 ) ;
#10 = ORIENTED_EDGE ( 'NONE', *, *, #6, .T. ) ;
#11 = MANIFOLD_SOLID_BREP ( 'Extrude1', #225 ) ;
#12 = AXIS2_PLACEMENT_3D ( 'NONE', #65, #80, #170 ) ;
#13 = DIRECTION ( 'NONE',  ( 0.0000000000000000000, 0.0000000000000000000, 1.000000000000000000 ) ) ;
#14 = DATE_TIME_ROLE ( 'classification_date' ) ;
#15 = EDGE_CURVE ( 'NONE', #20, #141, #197, .T. ) ;
#16 = CARTESIAN_POINT ( 'NONE',  ( 0.0000000000000000000, 0.0000000000000000000, 0.0000000000000000000 ) ) ;
#17 = DATE_AND_TIME ( #67, #109 ) ;
#18 = EDGE_CURVE ( 'NONE', #219, #141, #101, .T. ) ;
#19 = ADVANCED_FACE ( 'NONE', ( #162 ), #59, .F. ) ;
#20 = VERTEX_POINT ( 'NONE', #218 ) ;
#21 = CC_DESIGN_APPROVAL ( #204, ( #144 ) ) ;
#22 = DIRECTION ( 'NONE',  ( -1.000000000000000000, -1.850371707708594100E-016, 0.0000000000000000000 ) ) ;
#23 = CARTESIAN_POINT ( 'NONE',  ( 37.50000000000000000, -37.49999999999999300, 0.0000000000000000000 ) ) ;
#24 = VECTOR ( 'NONE', #3, 1000.000000000000000 ) ;
#25 = EDGE_LOOP ( 'NONE', ( #191, #233, #152, #104 ) ) ;
#26 = EDGE_CURVE ( 'NONE', #188, #146, #187, .T. ) ;
#27 = CARTESIAN_POINT ( 'NONE',  ( 37.50000000000000000, 37.49999999999999300, 0.0000000000000000000 ) ) ;
#28 = DIRECTION ( 'NONE',  ( 0.0000000000000000000, 0.0000000000000000000, -1.000000000000000000 ) ) ;
#29 = CARTESIAN_POINT ( 'NONE',  ( -37.50000000000000700, 37.49999999999999300, 3.000000000000000000 ) ) ;
#30 = CC_DESIGN_PERSON_AND_ORGANIZATION_ASSIGNMENT ( #182, #134, ( #137 ) ) ;
#31 =( NAMED_UNIT ( * ) PLANE_ANGLE_UNIT ( ) SI_UNIT ( $, .RADIAN. ) );
#32 = EDGE_CURVE ( 'NONE', #219, #4, #9, .T. ) ;
#33 = LINE ( 'NONE', #161, #151 ) ;
#34 = CC_DESIGN_APPROVAL ( #230, ( #137 ) ) ;
#35 = FACE_OUTER_BOUND ( 'NONE', #113, .T. ) ;
#36 = PERSON ( 'UNSPECIFIED', 'UNSPECIFIED', 'UNSPECIFIED', ('UNSPECIFIED'), ('UNSPECIFIED'), ('UNSPECIFIED') ) ;
#37 = EDGE_CURVE ( 'NONE', #4, #58, #47, .T. ) ;
#38 = CARTESIAN_POINT ( 'NONE',  ( -37.50000000000000700, 37.49999999999999300, 3.000000000000000000 ) ) ;
#39 = APPROVAL_DATE_TIME ( #85, #117 ) ;
#40 = DIRECTION ( 'NONE',  ( 1.000000000000000000, 1.850371707708594300E-016, -0.0000000000000000000 ) ) ;
#41 = ORIENTED_EDGE ( 'NONE', *, *, #95, .F. ) ;
#42 = CARTESIAN_POINT ( 'NONE',  ( -37.50000000000000700, 37.49999999999999300, 3.000000000000000000 ) ) ;
#43 = CARTESIAN_POINT ( 'NONE',  ( 37.50000000000000000, 37.49999999999999300, 3.000000000000000000 ) ) ;
#44 = DATE_AND_TIME ( #115, #186 ) ;
#45 = PLANE ( 'NONE',  #12 ) ;
#46 = APPLICATION_PROTOCOL_DEFINITION ( 'international standard', 'config_control_design', 1994, #118 ) ;
#47 = LINE ( 'NONE', #92, #175 ) ;
#48 = VECTOR ( 'NONE', #56, 1000.000000000000000 ) ;
#49 = APPROVAL_ROLE ( '' ) ;
#50 = AXIS2_PLACEMENT_3D ( 'NONE', #16, #13, #133 ) ;
#51 = CC_DESIGN_SECURITY_CLASSIFICATION ( #137, ( #144 ) ) ;
#52 = VECTOR ( 'NONE', #110, 1000.000000000000000 ) ;
#53 = ORIENTED_EDGE ( 'NONE', *, *, #69, .T. ) ;
#54 = ADVANCED_FACE ( 'NONE', ( #103 ), #124, .F. ) ;
#55 = PRODUCT_RELATED_PRODUCT_CATEGORY ( 'detail', '', ( #87 ) ) ;
#56 = DIRECTION ( 'NONE',  ( -0.0000000000000000000, 1.000000000000000000, -0.0000000000000000000 ) ) ;
#57 = VECTOR ( 'NONE', #125, 1000.000000000000000 ) ;
#58 = VERTEX_POINT ( 'NONE', #200 ) ;
#59 = PLANE ( 'NONE',  #178 ) ;
#60 = CARTESIAN_POINT ( 'NONE',  ( -37.50000000000000000, -37.50000000000000700, 3.000000000000000000 ) ) ;
#61 = DIRECTION ( 'NONE',  ( -0.0000000000000000000, -0.0000000000000000000, -1.000000000000000000 ) ) ;
#62 = PERSON_AND_ORGANIZATION ( #36, #209 ) ;
#63 = ORIENTED_EDGE ( 'NONE', *, *, #32, .T. ) ;
#64 = CARTESIAN_POINT ( 'NONE',  ( -37.50000000000000000, -37.50000000000000700, 3.000000000000000000 ) ) ;
#65 = CARTESIAN_POINT ( 'NONE',  ( 37.50000000000000000, 37.49999999999999300, 3.000000000000000000 ) ) ;
#66 = DESIGN_CONTEXT ( 'detailed design', #118, 'design' ) ;
#67 = CALENDAR_DATE ( 2017, 31, 1 ) ;
#68 = PERSON_AND_ORGANIZATION_ROLE ( 'design_owner' ) ;
#69 = EDGE_CURVE ( 'NONE', #58, #146, #217, .T. ) ;
#70 =( LENGTH_UNIT ( ) NAMED_UNIT ( * ) SI_UNIT ( .MILLI., .METRE. ) );
#71 = APPROVAL_ROLE ( '' ) ;
#72 = APPROVAL_PERSON_ORGANIZATION ( #62, #204, #71 ) ;
#73 = VECTOR ( 'NONE', #61, 1000.000000000000000 ) ;
#74 = VERTEX_POINT ( 'NONE', #180 ) ;
#75 = PERSON_AND_ORGANIZATION ( #36, #209 ) ;
#76 = LOCAL_TIME ( 14, 56, 14.00000000000000000, #156 ) ;
#77 = CC_DESIGN_PERSON_AND_ORGANIZATION_ASSIGNMENT ( #171, #148, ( #226 ) ) ;
#78 = PLANE ( 'NONE',  #216 ) ;
#79 = LOCAL_TIME ( 14, 56, 14.00000000000000000, #8 ) ;
#80 = DIRECTION ( 'NONE',  ( -1.000000000000000000, 0.0000000000000000000, 0.0000000000000000000 ) ) ;
#81 = DIRECTION ( 'NONE',  ( -9.251858538542970300E-017, 1.000000000000000000, 0.0000000000000000000 ) ) ;
#82 = CALENDAR_DATE ( 2017, 31, 1 ) ;
#83 = ORIENTED_EDGE ( 'NONE', *, *, #173, .F. ) ;
#84 = ORIENTED_EDGE ( 'NONE', *, *, #18, .T. ) ;
#85 = DATE_AND_TIME ( #82, #116 ) ;
#86 = EDGE_LOOP ( 'NONE', ( #183, #150, #136, #53 ) ) ;
#87 = PRODUCT ( 'Web Model 68398', 'Web Model 68398', '', ( #210 ) ) ;
#88 = ADVANCED_FACE ( 'NONE', ( #35 ), #201, .F. ) ;
#89 = LINE ( 'NONE', #159, #48 ) ;
#90 = EDGE_CURVE ( 'NONE', #74, #219, #167, .T. ) ;
#91 = PERSON_AND_ORGANIZATION ( #36, #209 ) ;
#92 = CARTESIAN_POINT ( 'NONE',  ( 37.50000000000000000, -37.49999999999999300, 3.000000000000000000 ) ) ;
#93 = ORIENTED_EDGE ( 'NONE', *, *, #198, .F. ) ;
#94 = ADVANCED_BREP_SHAPE_REPRESENTATION ( 'Web Model 68398', ( #11, #50 ), #234 ) ;
#95 = EDGE_CURVE ( 'NONE', #141, #188, #33, .T. ) ;
#96 = PERSON_AND_ORGANIZATION ( #36, #209 ) ;
#97 = ORIENTED_EDGE ( 'NONE', *, *, #90, .T. ) ;
#98 = CC_DESIGN_PERSON_AND_ORGANIZATION_ASSIGNMENT ( #75, #68, ( #87 ) ) ;
#99 = DIRECTION ( 'NONE',  ( -1.000000000000000000, 0.0000000000000000000, -0.0000000000000000000 ) ) ;
#100 = CARTESIAN_POINT ( 'NONE',  ( -37.50000000000000000, -37.50000000000000700, 3.000000000000000000 ) ) ;
#101 = LINE ( 'NONE', #199, #52 ) ;
#102 = ORIENTED_EDGE ( 'NONE', *, *, #18, .F. ) ;
#103 = FACE_OUTER_BOUND ( 'NONE', #107, .T. ) ;
#104 = ORIENTED_EDGE ( 'NONE', *, *, #198, .T. ) ;
#105 = ADVANCED_FACE ( 'NONE', ( #195 ), #5, .F. ) ;
#106 = FACE_OUTER_BOUND ( 'NONE', #86, .T. ) ;
#107 = EDGE_LOOP ( 'NONE', ( #196, #93, #236, #84 ) ) ;
#108 = CC_DESIGN_DATE_AND_TIME_ASSIGNMENT ( #202, #169, ( #226 ) ) ;
#109 = LOCAL_TIME ( 14, 56, 14.00000000000000000, #206 ) ;
#110 = DIRECTION ( 'NONE',  ( -0.0000000000000000000, -0.0000000000000000000, -1.000000000000000000 ) ) ;
#111 = CARTESIAN_POINT ( 'NONE',  ( 37.50000000000000000, -37.49999999999999300, 3.000000000000000000 ) ) ;
#112 = DIRECTION ( 'NONE',  ( 1.000000000000000000, 9.251858538542970300E-017, -0.0000000000000000000 ) ) ;
#113 = EDGE_LOOP ( 'NONE', ( #63, #130, #10, #97 ) ) ;
#114 = CARTESIAN_POINT ( 'NONE',  ( -37.50000000000000700, 37.49999999999999300, 0.0000000000000000000 ) ) ;
#115 = CALENDAR_DATE ( 2017, 31, 1 ) ;
#116 = LOCAL_TIME ( 14, 56, 14.00000000000000000, #158 ) ;
#117 = APPROVAL ( #172, 'UNSPECIFIED' ) ;
#118 = APPLICATION_CONTEXT ( 'configuration controlled 3d designs of mechanical parts and assemblies' ) ;
#119 = APPROVAL_STATUS ( 'not_yet_approved' ) ;
#120 = VECTOR ( 'NONE', #177, 1000.000000000000000 ) ;
#121 = APPLICATION_PROTOCOL_DEFINITION ( 'international standard', 'config_control_design', 1994, #190 ) ;
#122 = FACE_OUTER_BOUND ( 'NONE', #212, .T. ) ;
#123 = LINE ( 'NONE', #43, #140 ) ;
#124 = PLANE ( 'NONE',  #228 ) ;
#125 = DIRECTION ( 'NONE',  ( 1.000000000000000000, 1.850371707708594300E-016, -0.0000000000000000000 ) ) ;
#126 = SHAPE_DEFINITION_REPRESENTATION ( #193, #94 ) ;
#127 = ORIENTED_EDGE ( 'NONE', *, *, #26, .F. ) ;
#128 = DIRECTION ( 'NONE',  ( 0.0000000000000000000, -1.000000000000000000, 0.0000000000000000000 ) ) ;
#129 = APPROVAL_DATE_TIME ( #176, #230 ) ;
#130 = ORIENTED_EDGE ( 'NONE', *, *, #37, .T. ) ;
#131 = PERSON_AND_ORGANIZATION ( #36, #209 ) ;
#132 = ORIENTED_EDGE ( 'NONE', *, *, #15, .F. ) ;
#133 = DIRECTION ( 'NONE',  ( 1.000000000000000000, 0.0000000000000000000, 0.0000000000000000000 ) ) ;
#134 = PERSON_AND_ORGANIZATION_ROLE ( 'classification_officer' ) ;
#135 = UNCERTAINTY_MEASURE_WITH_UNIT (LENGTH_MEASURE( 1.000000000000000100E-005 ), #70, 'distance_accuracy_value', 'NONE');
#136 = ORIENTED_EDGE ( 'NONE', *, *, #6, .F. ) ;
#137 = SECURITY_CLASSIFICATION ( '', '', #185 ) ;
#138 = COORDINATED_UNIVERSAL_TIME_OFFSET ( 5, 0, .BEHIND. ) ;
#139 = VECTOR ( 'NONE', #2, 1000.000000000000000 ) ;
#140 = VECTOR ( 'NONE', #164, 1000.000000000000000 ) ;
#141 = VERTEX_POINT ( 'NONE', #114 ) ;
#142 = CARTESIAN_POINT ( 'NONE',  ( 37.50000000000000000, 37.49999999999999300, 3.000000000000000000 ) ) ;
#143 = DIRECTION ( 'NONE',  ( 0.0000000000000000000, -0.0000000000000000000, -1.000000000000000000 ) ) ;
#144 = PRODUCT_DEFINITION_FORMATION_WITH_SPECIFIED_SOURCE ( 'ANY', '', #87, .NOT_KNOWN. ) ;
#145 = VECTOR ( 'NONE', #221, 1000.000000000000000 ) ;
#146 = VERTEX_POINT ( 'NONE', #165 ) ;
#147 = DIRECTION ( 'NONE',  ( 9.251858538542971600E-017, -1.000000000000000000, 0.0000000000000000000 ) ) ;
#148 = PERSON_AND_ORGANIZATION_ROLE ( 'creator' ) ;
#149 = LINE ( 'NONE', #27, #232 ) ;
#150 = ORIENTED_EDGE ( 'NONE', *, *, #189, .F. ) ;
#151 = VECTOR ( 'NONE', #147, 1000.000000000000000 ) ;
#152 = ORIENTED_EDGE ( 'NONE', *, *, #37, .F. ) ;
#153 = APPROVAL_ROLE ( '' ) ;
#154 = CC_DESIGN_PERSON_AND_ORGANIZATION_ASSIGNMENT ( #222, #224, ( #144 ) ) ;
#155 = LINE ( 'NONE', #64, #145 ) ;
#156 = COORDINATED_UNIVERSAL_TIME_OFFSET ( 5, 0, .BEHIND. ) ;
#157 = ORIENTED_EDGE ( 'NONE', *, *, #90, .F. ) ;
#158 = COORDINATED_UNIVERSAL_TIME_OFFSET ( 5, 0, .BEHIND. ) ;
#159 = CARTESIAN_POINT ( 'NONE',  ( 37.50000000000000000, 37.49999999999999300, 3.000000000000000000 ) ) ;
#160 = CALENDAR_DATE ( 2017, 31, 1 ) ;
#161 = CARTESIAN_POINT ( 'NONE',  ( -37.50000000000000700, 37.49999999999999300, 0.0000000000000000000 ) ) ;
#162 = FACE_OUTER_BOUND ( 'NONE', #25, .T. ) ;
#163 = CARTESIAN_POINT ( 'NONE',  ( -37.50000000000000000, -37.50000000000000700, 0.0000000000000000000 ) ) ;
#164 = DIRECTION ( 'NONE',  ( -0.0000000000000000000, -0.0000000000000000000, -1.000000000000000000 ) ) ;
#165 = CARTESIAN_POINT ( 'NONE',  ( 37.50000000000000000, -37.49999999999999300, 0.0000000000000000000 ) ) ;
#166 = CALENDAR_DATE ( 2017, 31, 1 ) ;
#167 = LINE ( 'NONE', #142, #24 ) ;
#168 = DIRECTION ( 'NONE',  ( -0.0000000000000000000, 1.000000000000000000, -0.0000000000000000000 ) ) ;
#169 = DATE_TIME_ROLE ( 'creation_date' ) ;
#170 = DIRECTION ( 'NONE',  ( 0.0000000000000000000, 0.0000000000000000000, 1.000000000000000000 ) ) ;
#171 = PERSON_AND_ORGANIZATION ( #36, #209 ) ;
#172 = APPROVAL_STATUS ( 'not_yet_approved' ) ;
#173 = EDGE_CURVE ( 'NONE', #146, #20, #149, .T. ) ;
#174 = EDGE_LOOP ( 'NONE', ( #1, #102, #157, #203 ) ) ;
#175 = VECTOR ( 'NONE', #40, 1000.000000000000000 ) ;
#176 = DATE_AND_TIME ( #166, #79 ) ;
#177 = DIRECTION ( 'NONE',  ( 9.251858538542971600E-017, -1.000000000000000000, 0.0000000000000000000 ) ) ;
#178 = AXIS2_PLACEMENT_3D ( 'NONE', #111, #215, #22 ) ;
#179 = CARTESIAN_POINT ( 'NONE',  ( 37.50000000000000000, 37.49999999999999300, 0.0000000000000000000 ) ) ;
#180 = CARTESIAN_POINT ( 'NONE',  ( 37.50000000000000000, 37.49999999999999300, 3.000000000000000000 ) ) ;
#181 = CC_DESIGN_DATE_AND_TIME_ASSIGNMENT ( #44, #14, ( #137 ) ) ;
#182 = PERSON_AND_ORGANIZATION ( #36, #209 ) ;
#183 = ORIENTED_EDGE ( 'NONE', *, *, #173, .T. ) ;
#184 = DIRECTION ( 'NONE',  ( 0.0000000000000000000, 0.0000000000000000000, -1.000000000000000000 ) ) ;
#185 = SECURITY_CLASSIFICATION_LEVEL ( 'unclassified' ) ;
#186 = LOCAL_TIME ( 14, 56, 14.00000000000000000, #138 ) ;
#187 = LINE ( 'NONE', #23, #57 ) ;
#188 = VERTEX_POINT ( 'NONE', #163 ) ;
#189 = EDGE_CURVE ( 'NONE', #74, #20, #123, .T. ) ;
#190 = APPLICATION_CONTEXT ( 'configuration controlled 3d designs of mechanical parts and assemblies' ) ;
#191 = ORIENTED_EDGE ( 'NONE', *, *, #26, .T. ) ;
#192 = CC_DESIGN_APPROVAL ( #117, ( #226 ) ) ;
#193 = PRODUCT_DEFINITION_SHAPE ( 'NONE', 'NONE',  #226 ) ;
#194 = AXIS2_PLACEMENT_3D ( 'NONE', #100, #184, #223 ) ;
#195 = FACE_OUTER_BOUND ( 'NONE', #174, .T. ) ;
#196 = ORIENTED_EDGE ( 'NONE', *, *, #95, .T. ) ;
#197 = LINE ( 'NONE', #179, #139 ) ;
#198 = EDGE_CURVE ( 'NONE', #4, #188, #155, .T. ) ;
#199 = CARTESIAN_POINT ( 'NONE',  ( -37.50000000000000700, 37.49999999999999300, 3.000000000000000000 ) ) ;
#200 = CARTESIAN_POINT ( 'NONE',  ( 37.50000000000000000, -37.49999999999999300, 3.000000000000000000 ) ) ;
#201 = PLANE ( 'NONE',  #194 ) ;
#202 = DATE_AND_TIME ( #160, #76 ) ;
#203 = ORIENTED_EDGE ( 'NONE', *, *, #189, .T. ) ;
#204 = APPROVAL ( #119, 'UNSPECIFIED' ) ;
#205 = CARTESIAN_POINT ( 'NONE',  ( 37.50000000000000000, -37.49999999999999300, 3.000000000000000000 ) ) ;
#206 = COORDINATED_UNIVERSAL_TIME_OFFSET ( 5, 0, .BEHIND. ) ;
#207 = APPROVAL_STATUS ( 'not_yet_approved' ) ;
#208 = PERSON_AND_ORGANIZATION_ROLE ( 'design_supplier' ) ;
#209 = ORGANIZATION ( 'UNSPECIFIED', 'UNSPECIFIED', '' ) ;
#210 = MECHANICAL_CONTEXT ( 'NONE', #190, 'mechanical' ) ;
#211 = APPROVAL_PERSON_ORGANIZATION ( #131, #117, #49 ) ;
#212 = EDGE_LOOP ( 'NONE', ( #41, #132, #83, #127 ) ) ;
#213 = ADVANCED_FACE ( 'NONE', ( #122 ), #78, .T. ) ;
#214 = CC_DESIGN_PERSON_AND_ORGANIZATION_ASSIGNMENT ( #96, #208, ( #144 ) ) ;
#215 = DIRECTION ( 'NONE',  ( -1.850371707708594100E-016, 1.000000000000000000, 0.0000000000000000000 ) ) ;
#216 = AXIS2_PLACEMENT_3D ( 'NONE', #7, #28, #99 ) ;
#217 = LINE ( 'NONE', #205, #73 ) ;
#218 = CARTESIAN_POINT ( 'NONE',  ( 37.50000000000000000, 37.49999999999999300, 0.0000000000000000000 ) ) ;
#219 = VERTEX_POINT ( 'NONE', #42 ) ;
#220 = CARTESIAN_POINT ( 'NONE',  ( 37.50000000000000000, 37.49999999999999300, 3.000000000000000000 ) ) ;
#221 = DIRECTION ( 'NONE',  ( -0.0000000000000000000, -0.0000000000000000000, -1.000000000000000000 ) ) ;
#222 = PERSON_AND_ORGANIZATION ( #36, #209 ) ;
#223 = DIRECTION ( 'NONE',  ( -1.000000000000000000, 0.0000000000000000000, -0.0000000000000000000 ) ) ;
#224 = PERSON_AND_ORGANIZATION_ROLE ( 'creator' ) ;
#225 = CLOSED_SHELL ( 'NONE', ( #54, #19, #235, #105, #88, #213 ) ) ;
#226 = PRODUCT_DEFINITION ( 'UNKNOWN', '', #144, #66 ) ;
#227 =( NAMED_UNIT ( * ) SI_UNIT ( $, .STERADIAN. ) SOLID_ANGLE_UNIT ( ) );
#228 = AXIS2_PLACEMENT_3D ( 'NONE', #29, #112, #81 ) ;
#229 = APPROVAL_PERSON_ORGANIZATION ( #91, #230, #153 ) ;
#230 = APPROVAL ( #207, 'UNSPECIFIED' ) ;
#231 = APPROVAL_DATE_TIME ( #17, #204 ) ;
#232 = VECTOR ( 'NONE', #168, 1000.000000000000000 ) ;
#233 = ORIENTED_EDGE ( 'NONE', *, *, #69, .F. ) ;
#234 =( GEOMETRIC_REPRESENTATION_CONTEXT ( 3 ) GLOBAL_UNCERTAINTY_ASSIGNED_CONTEXT ( ( #135 ) ) GLOBAL_UNIT_ASSIGNED_CONTEXT ( ( #70, #31, #227 ) ) REPRESENTATION_CONTEXT ( 'NONE', 'WORKASPACE' ) );
#235 = ADVANCED_FACE ( 'NONE', ( #106 ), #45, .F. ) ;
#236 = ORIENTED_EDGE ( 'NONE', *, *, #32, .F. ) ;
#237 = AXIS2_PLACEMENT_3D ( 'NONE', #220, #128, #143 ) ;
ENDSEC;
END-ISO-10303-21;
