ISO-10303-21;
HEADER;
FILE_DESCRIPTION (( 'STEP AP203' ),
    '1' );
FILE_NAME ('step_47124.step',
    '2014-06-12T17:57:45',
    ( '' ),
    ( '' ),
    'SwSTEP 2.0',
    'SolidWorks 2014',
    '' );
FILE_SCHEMA (( 'CONFIG_CONTROL_DESIGN' ));
ENDSEC;

DATA;
#1 = PERSON_AND_ORGANIZATION_ROLE ( 'classification_officer' ) ;
#2 = AXIS2_PLACEMENT_3D ( 'NONE', #194, #238, #186 ) ;
#3 = VERTEX_POINT ( 'NONE', #231 ) ;
#4 = SECURITY_CLASSIFICATION_LEVEL ( 'unclassified' ) ;
#5 = ORIENTED_EDGE ( 'NONE', *, *, #45, .T. ) ;
#6 = PERSON_AND_ORGANIZATION_ROLE ( 'design_supplier' ) ;
#7 = PERSON_AND_ORGANIZATION_ROLE ( 'creator' ) ;
#8 = FACE_OUTER_BOUND ( 'NONE', #173, .T. ) ;
#9 = ORIENTED_EDGE ( 'NONE', *, *, #85, .F. ) ;
#10 = APPROVAL_ROLE ( '' ) ;
#11 = APPROVAL_STATUS ( 'not_yet_approved' ) ;
#12 =( GEOMETRIC_REPRESENTATION_CONTEXT ( 3 ) GLOBAL_UNCERTAINTY_ASSIGNED_CONTEXT ( ( #158 ) ) GLOBAL_UNIT_ASSIGNED_CONTEXT ( ( #57, #50, #46 ) ) REPRESENTATION_CONTEXT ( 'NONE', 'WORKASPACE' ) );
#13 = EDGE_LOOP ( 'NONE', ( #121, #230, #55, #51 ) ) ;
#14 = EDGE_CURVE ( 'NONE', #25, #89, #48, .T. ) ;
#15 = DATE_TIME_ROLE ( 'creation_date' ) ;
#16 = ADVANCED_FACE ( 'NONE', ( #49 ), #248, .F. ) ;
#17 = PERSON_AND_ORGANIZATION_ROLE ( 'creator' ) ;
#18 = FACE_OUTER_BOUND ( 'NONE', #41, .T. ) ;
#19 = VERTEX_POINT ( 'NONE', #282 ) ;
#20 = VECTOR ( 'NONE', #299, 1000.000000000000000 ) ;
#21 = APPROVAL_ROLE ( '' ) ;
#22 = EDGE_CURVE ( 'NONE', #146, #89, #182, .T. ) ;
#23 = APPLICATION_PROTOCOL_DEFINITION ( 'international standard', 'config_control_design', 1994, #27 ) ;
#24 = ORIENTED_EDGE ( 'NONE', *, *, #119, .F. ) ;
#25 = VERTEX_POINT ( 'NONE', #91 ) ;
#26 = EDGE_CURVE ( 'NONE', #19, #189, #112, .T. ) ;
#27 = APPLICATION_CONTEXT ( 'configuration controlled 3d designs of mechanical parts and assemblies' ) ;
#28 = PERSON_AND_ORGANIZATION ( #218, #139 ) ;
#29 = PERSON_AND_ORGANIZATION_ROLE ( 'design_owner' ) ;
#30 = ORIENTED_EDGE ( 'NONE', *, *, #67, .F. ) ;
#31 = AXIS2_PLACEMENT_3D ( 'NONE', #211, #204, #203 ) ;
#32 = MECHANICAL_CONTEXT ( 'NONE', #37, 'mechanical' ) ;
#33 = ORIENTED_EDGE ( 'NONE', *, *, #120, .T. ) ;
#34 = VECTOR ( 'NONE', #236, 1000.000000000000000 ) ;
#35 = DIRECTION ( 'NONE',  ( 1.000000000000000000, 0.0000000000000000000, 0.0000000000000000000 ) ) ;
#36 = DIRECTION ( 'NONE',  ( 0.0000000000000000000, 0.0000000000000000000, 1.000000000000000000 ) ) ;
#37 = APPLICATION_CONTEXT ( 'configuration controlled 3d designs of mechanical parts and assemblies' ) ;
#38 = VECTOR ( 'NONE', #312, 1000.000000000000000 ) ;
#39 = EDGE_CURVE ( 'NONE', #256, #25, #305, .T. ) ;
#40 = PERSON_AND_ORGANIZATION ( #218, #139 ) ;
#41 = EDGE_LOOP ( 'NONE', ( #42, #141, #258 ) ) ;
#42 = ORIENTED_EDGE ( 'NONE', *, *, #26, .T. ) ;
#43 = APPLICATION_PROTOCOL_DEFINITION ( 'international standard', 'config_control_design', 1994, #37 ) ;
#44 = ADVANCED_FACE ( 'NONE', ( #226 ), #110, .F. ) ;
#45 = EDGE_CURVE ( 'NONE', #256, #146, #187, .T. ) ;
#46 =( NAMED_UNIT ( * ) SI_UNIT ( $, .STERADIAN. ) SOLID_ANGLE_UNIT ( ) );
#47 = APPROVAL_PERSON_ORGANIZATION ( #302, #109, #10 ) ;
#48 = LINE ( 'NONE', #275, #65 ) ;
#49 = FACE_OUTER_BOUND ( 'NONE', #208, .T. ) ;
#50 =( NAMED_UNIT ( * ) PLANE_ANGLE_UNIT ( ) SI_UNIT ( $, .RADIAN. ) );
#51 = ORIENTED_EDGE ( 'NONE', *, *, #70, .T. ) ;
#52 = PRODUCT_RELATED_PRODUCT_CATEGORY ( 'detail', '', ( #221 ) ) ;
#53 = CARTESIAN_POINT ( 'NONE',  ( 0.0000000000000000000, 0.0000000000000000000, 0.0000000000000000000 ) ) ;
#54 = LOCAL_TIME ( 10, 57, 45.00000000000000000, #307 ) ;
#55 = ORIENTED_EDGE ( 'NONE', *, *, #273, .F. ) ;
#56 = ORIENTED_EDGE ( 'NONE', *, *, #14, .T. ) ;
#57 =( LENGTH_UNIT ( ) NAMED_UNIT ( * ) SI_UNIT ( .MILLI., .METRE. ) );
#58 = APPROVAL_STATUS ( 'not_yet_approved' ) ;
#59 = CC_DESIGN_SECURITY_CLASSIFICATION ( #87, ( #136 ) ) ;
#60 = ORIENTED_EDGE ( 'NONE', *, *, #119, .T. ) ;
#61 = ADVANCED_BREP_SHAPE_REPRESENTATION ( 'step_47124', ( #265, #247, #309 ), #12 ) ;
#62 = APPROVAL_STATUS ( 'not_yet_approved' ) ;
#63 = CC_DESIGN_APPROVAL ( #68, ( #87 ) ) ;
#64 = DIRECTION ( 'NONE',  ( -1.734723475976806800E-016, -1.000000000000000000, 0.0000000000000000000 ) ) ;
#65 = VECTOR ( 'NONE', #222, 1000.000000000000000 ) ;
#66 = EDGE_LOOP ( 'NONE', ( #123, #255, #30 ) ) ;
#67 = EDGE_CURVE ( 'NONE', #89, #234, #83, .T. ) ;
#68 = APPROVAL ( #58, 'UNSPECIFIED' ) ;
#69 = DIRECTION ( 'NONE',  ( -1.000000000000000000, 1.734723475976806800E-016, 0.0000000000000000000 ) ) ;
#70 = EDGE_CURVE ( 'NONE', #189, #107, #291, .T. ) ;
#71 = DATE_AND_TIME ( #295, #249 ) ;
#72 = CC_DESIGN_DATE_AND_TIME_ASSIGNMENT ( #229, #80, ( #87 ) ) ;
#73 = DIRECTION ( 'NONE',  ( 1.000000000000000000, 1.734723475976806600E-016, 0.0000000000000000000 ) ) ;
#74 = ADVANCED_FACE ( 'NONE', ( #308 ), #300, .T. ) ;
#75 = LINE ( 'NONE', #260, #317 ) ;
#76 = CARTESIAN_POINT ( 'NONE',  ( 20.00000000000000400, 20.00000000000000400, 20.00000000000000000 ) ) ;
#77 = PLANE ( 'NONE',  #287 ) ;
#78 = CARTESIAN_POINT ( 'NONE',  ( 20.00000000000000400, 20.00000000000000400, 20.00000000000000000 ) ) ;
#79 = EDGE_CURVE ( 'NONE', #296, #234, #75, .T. ) ;
#80 = DATE_TIME_ROLE ( 'classification_date' ) ;
#81 = COORDINATED_UNIVERSAL_TIME_OFFSET ( 7, 0, .BEHIND. ) ;
#82 = DIRECTION ( 'NONE',  ( 0.7071067811865475700, -0.7071067811865474600, 0.0000000000000000000 ) ) ;
#83 = LINE ( 'NONE', #306, #251 ) ;
#84 = CC_DESIGN_PERSON_AND_ORGANIZATION_ASSIGNMENT ( #125, #1, ( #87 ) ) ;
#85 = EDGE_CURVE ( 'NONE', #25, #296, #297, .T. ) ;
#86 = DATE_AND_TIME ( #310, #264 ) ;
#87 = SECURITY_CLASSIFICATION ( '', '', #4 ) ;
#88 = APPROVAL_PERSON_ORGANIZATION ( #28, #115, #21 ) ;
#89 = VERTEX_POINT ( 'NONE', #268 ) ;
#90 = DIRECTION ( 'NONE',  ( 9.184850993605148400E-017, -1.000000000000000000, 0.0000000000000000000 ) ) ;
#91 = CARTESIAN_POINT ( 'NONE',  ( -1.836970198721029600E-015, 20.00000000000000000, 20.00000000000000000 ) ) ;
#92 = CALENDAR_DATE ( 2014, 12, 6 ) ;
#93 = EDGE_LOOP ( 'NONE', ( #124, #292, #60 ) ) ;
#94 = CARTESIAN_POINT ( 'NONE',  ( -1.836970198721029600E-015, 20.00000000000000000, 20.00000000000000000 ) ) ;
#95 = ORIENTED_EDGE ( 'NONE', *, *, #14, .F. ) ;
#96 = CARTESIAN_POINT ( 'NONE',  ( 20.00000000000000000, 0.0000000000000000000, 20.00000000000000000 ) ) ;
#97 = PERSON_AND_ORGANIZATION ( #218, #139 ) ;
#98 = ORIENTED_EDGE ( 'NONE', *, *, #79, .T. ) ;
#99 = CARTESIAN_POINT ( 'NONE',  ( 20.00000000000000000, 0.0000000000000000000, 20.00000000000000000 ) ) ;
#100 = CC_DESIGN_PERSON_AND_ORGANIZATION_ASSIGNMENT ( #209, #6, ( #136 ) ) ;
#101 = PERSON_AND_ORGANIZATION ( #218, #139 ) ;
#102 = CARTESIAN_POINT ( 'NONE',  ( 0.0000000000000000000, 0.0000000000000000000, 20.00000000000000000 ) ) ;
#103 = VECTOR ( 'NONE', #164, 1000.000000000000000 ) ;
#104 = DIRECTION ( 'NONE',  ( 1.000000000000000000, 0.0000000000000000000, -0.0000000000000000000 ) ) ;
#105 = DIRECTION ( 'NONE',  ( 0.0000000000000000000, 0.0000000000000000000, 1.000000000000000000 ) ) ;
#106 = EDGE_CURVE ( 'NONE', #234, #146, #285, .T. ) ;
#107 = VERTEX_POINT ( 'NONE', #243 ) ;
#108 = ORIENTED_EDGE ( 'NONE', *, *, #79, .F. ) ;
#109 = APPROVAL ( #11, 'UNSPECIFIED' ) ;
#110 = PLANE ( 'NONE',  #263 ) ;
#111 = APPROVAL_DATE_TIME ( #71, #109 ) ;
#112 = LINE ( 'NONE', #169, #198 ) ;
#113 = DIRECTION ( 'NONE',  ( -0.0000000000000000000, -0.0000000000000000000, -1.000000000000000000 ) ) ;
#114 = ORIENTED_EDGE ( 'NONE', *, *, #179, .F. ) ;
#115 = APPROVAL ( #62, 'UNSPECIFIED' ) ;
#116 = CARTESIAN_POINT ( 'NONE',  ( 0.0000000000000000000, 0.0000000000000000000, 20.00000000000000000 ) ) ;
#117 = CARTESIAN_POINT ( 'NONE',  ( 0.0000000000000000000, 0.0000000000000000000, 20.00000000000000000 ) ) ;
#118 = ORIENTED_EDGE ( 'NONE', *, *, #207, .F. ) ;
#119 = EDGE_CURVE ( 'NONE', #296, #256, #153, .T. ) ;
#120 = EDGE_CURVE ( 'NONE', #242, #107, #147, .T. ) ;
#121 = ORIENTED_EDGE ( 'NONE', *, *, #197, .T. ) ;
#122 = DESIGN_CONTEXT ( 'detailed design', #27, 'design' ) ;
#123 = ORIENTED_EDGE ( 'NONE', *, *, #22, .F. ) ;
#124 = ORIENTED_EDGE ( 'NONE', *, *, #39, .T. ) ;
#125 = PERSON_AND_ORGANIZATION ( #218, #139 ) ;
#126 = DIRECTION ( 'NONE',  ( -9.184850993605148400E-017, 1.000000000000000000, 0.0000000000000000000 ) ) ;
#127 = DIRECTION ( 'NONE',  ( 1.000000000000000000, 9.184850993605148400E-017, -0.0000000000000000000 ) ) ;
#128 = ADVANCED_FACE ( 'NONE', ( #201 ), #235, .F. ) ;
#129 = PLANE ( 'NONE',  #267 ) ;
#130 = CC_DESIGN_APPROVAL ( #109, ( #136 ) ) ;
#131 = PRODUCT_DEFINITION_SHAPE ( 'NONE', 'NONE',  #314 ) ;
#132 = LINE ( 'NONE', #94, #225 ) ;
#133 = FACE_OUTER_BOUND ( 'NONE', #13, .T. ) ;
#134 = FACE_OUTER_BOUND ( 'NONE', #304, .T. ) ;
#135 = CARTESIAN_POINT ( 'NONE',  ( 20.00000000000000000, 0.0000000000000000000, 0.0000000000000000000 ) ) ;
#136 = PRODUCT_DEFINITION_FORMATION_WITH_SPECIFIED_SOURCE ( 'ANY', '', #221, .NOT_KNOWN. ) ;
#137 = EDGE_LOOP ( 'NONE', ( #315, #95, #150, #5 ) ) ;
#138 = PLANE ( 'NONE',  #278 ) ;
#139 = ORGANIZATION ( 'UNSPECIFIED', 'UNSPECIFIED', '' ) ;
#140 = CARTESIAN_POINT ( 'NONE',  ( 20.00000000000000400, 20.00000000000000400, 20.00000000000000000 ) ) ;
#141 = ORIENTED_EDGE ( 'NONE', *, *, #273, .T. ) ;
#142 = DIRECTION ( 'NONE',  ( -1.000000000000000000, 0.0000000000000000000, 0.0000000000000000000 ) ) ;
#143 = DIRECTION ( 'NONE',  ( 0.0000000000000000000, 0.0000000000000000000, -1.000000000000000000 ) ) ;
#144 = CARTESIAN_POINT ( 'NONE',  ( -1.836970198721029600E-015, 20.00000000000000000, 20.00000000000000000 ) ) ;
#145 = APPROVAL_PERSON_ORGANIZATION ( #101, #68, #148 ) ;
#146 = VERTEX_POINT ( 'NONE', #220 ) ;
#147 = LINE ( 'NONE', #233, #188 ) ;
#148 = APPROVAL_ROLE ( '' ) ;
#149 = CARTESIAN_POINT ( 'NONE',  ( 0.0000000000000000000, 0.0000000000000000000, 20.00000000000000000 ) ) ;
#150 = ORIENTED_EDGE ( 'NONE', *, *, #39, .F. ) ;
#151 = DIRECTION ( 'NONE',  ( 1.000000000000000000, 0.0000000000000000000, 0.0000000000000000000 ) ) ;
#152 = PLANE ( 'NONE',  #216 ) ;
#153 = LINE ( 'NONE', #253, #34 ) ;
#154 = CLOSED_SHELL ( 'NONE', ( #44, #128, #293, #223, #74 ) ) ;
#155 = ADVANCED_FACE ( 'NONE', ( #134 ), #206, .F. ) ;
#156 = CARTESIAN_POINT ( 'NONE',  ( 0.0000000000000000000, 0.0000000000000000000, 0.0000000000000000000 ) ) ;
#157 = COORDINATED_UNIVERSAL_TIME_OFFSET ( 7, 0, .BEHIND. ) ;
#158 = UNCERTAINTY_MEASURE_WITH_UNIT (LENGTH_MEASURE( 1.000000000000000100E-005 ), #57, 'distance_accuracy_value', 'NONE');
#159 = DIRECTION ( 'NONE',  ( -0.7071067811865475700, 0.7071067811865474600, 0.0000000000000000000 ) ) ;
#160 = ORIENTED_EDGE ( 'NONE', *, *, #45, .F. ) ;
#161 = DIRECTION ( 'NONE',  ( 9.184850993605148400E-017, -1.000000000000000000, 0.0000000000000000000 ) ) ;
#162 = DIRECTION ( 'NONE',  ( -0.0000000000000000000, -0.0000000000000000000, -1.000000000000000000 ) ) ;
#163 = CALENDAR_DATE ( 2014, 12, 6 ) ;
#164 = DIRECTION ( 'NONE',  ( -1.000000000000000000, -1.734723475976806800E-016, 0.0000000000000000000 ) ) ;
#165 = CC_DESIGN_DATE_AND_TIME_ASSIGNMENT ( #254, #15, ( #314 ) ) ;
#166 = CARTESIAN_POINT ( 'NONE',  ( -1.836970198721029600E-015, 20.00000000000000000, 0.0000000000000000000 ) ) ;
#167 = DIRECTION ( 'NONE',  ( 1.000000000000000000, 0.0000000000000000000, 0.0000000000000000000 ) ) ;
#168 = EDGE_LOOP ( 'NONE', ( #246, #108, #9, #56 ) ) ;
#169 = CARTESIAN_POINT ( 'NONE',  ( 20.00000000000000000, 0.0000000000000000000, 20.00000000000000000 ) ) ;
#170 = CARTESIAN_POINT ( 'NONE',  ( 0.0000000000000000000, 0.0000000000000000000, 20.00000000000000000 ) ) ;
#171 = CC_DESIGN_PERSON_AND_ORGANIZATION_ASSIGNMENT ( #40, #7, ( #136 ) ) ;
#172 = VECTOR ( 'NONE', #240, 1000.000000000000000 ) ;
#173 = EDGE_LOOP ( 'NONE', ( #191, #160, #24, #98 ) ) ;
#174 = CARTESIAN_POINT ( 'NONE',  ( 20.00000000000000000, 0.0000000000000000000, 0.0000000000000000000 ) ) ;
#175 = CLOSED_SHELL ( 'NONE', ( #16, #244, #178, #271, #155 ) ) ;
#176 = ORIENTED_EDGE ( 'NONE', *, *, #288, .T. ) ;
#177 = CC_DESIGN_PERSON_AND_ORGANIZATION_ASSIGNMENT ( #257, #17, ( #314 ) ) ;
#178 = ADVANCED_FACE ( 'NONE', ( #272 ), #190, .F. ) ;
#179 = EDGE_CURVE ( 'NONE', #270, #19, #321, .T. ) ;
#180 = CARTESIAN_POINT ( 'NONE',  ( -1.836970198721029600E-015, 20.00000000000000000, 20.00000000000000000 ) ) ;
#181 = VECTOR ( 'NONE', #162, 1000.000000000000000 ) ;
#182 = LINE ( 'NONE', #277, #241 ) ;
#183 = DIRECTION ( 'NONE',  ( 0.7071067811865475700, -0.7071067811865474600, 0.0000000000000000000 ) ) ;
#184 = CARTESIAN_POINT ( 'NONE',  ( 20.00000000000000000, 0.0000000000000000000, 20.00000000000000000 ) ) ;
#185 = CALENDAR_DATE ( 2014, 12, 6 ) ;
#186 = DIRECTION ( 'NONE',  ( 0.0000000000000000000, -0.0000000000000000000, 1.000000000000000000 ) ) ;
#187 = LINE ( 'NONE', #78, #38 ) ;
#188 = VECTOR ( 'NONE', #224, 1000.000000000000000 ) ;
#189 = VERTEX_POINT ( 'NONE', #180 ) ;
#190 = PLANE ( 'NONE',  #2 ) ;
#191 = ORIENTED_EDGE ( 'NONE', *, *, #106, .T. ) ;
#192 = AXIS2_PLACEMENT_3D ( 'NONE', #294, #284, #283 ) ;
#193 = DIRECTION ( 'NONE',  ( -1.000000000000000000, -1.734723475976806800E-016, 0.0000000000000000000 ) ) ;
#194 = CARTESIAN_POINT ( 'NONE',  ( 0.0000000000000000000, 0.0000000000000000000, 20.00000000000000000 ) ) ;
#195 = EDGE_CURVE ( 'NONE', #19, #242, #261, .T. ) ;
#196 = ORIENTED_EDGE ( 'NONE', *, *, #120, .F. ) ;
#197 = EDGE_CURVE ( 'NONE', #107, #3, #313, .T. ) ;
#198 = VECTOR ( 'NONE', #159, 1000.000000000000000 ) ;
#199 = AXIS2_PLACEMENT_3D ( 'NONE', #250, #262, #183 ) ;
#200 = APPROVAL_DATE_TIME ( #86, #115 ) ;
#201 = FACE_OUTER_BOUND ( 'NONE', #168, .T. ) ;
#202 = LOCAL_TIME ( 10, 57, 45.00000000000000000, #266 ) ;
#203 = DIRECTION ( 'NONE',  ( 1.000000000000000000, 0.0000000000000000000, -0.0000000000000000000 ) ) ;
#204 = DIRECTION ( 'NONE',  ( 0.0000000000000000000, 0.0000000000000000000, 1.000000000000000000 ) ) ;
#205 = VECTOR ( 'NONE', #286, 1000.000000000000000 ) ;
#206 = PLANE ( 'NONE',  #31 ) ;
#207 = EDGE_CURVE ( 'NONE', #3, #242, #319, .T. ) ;
#208 = EDGE_LOOP ( 'NONE', ( #33, #276, #237, #269 ) ) ;
#209 = PERSON_AND_ORGANIZATION ( #218, #139 ) ;
#210 = VECTOR ( 'NONE', #151, 1000.000000000000000 ) ;
#211 = CARTESIAN_POINT ( 'NONE',  ( 0.0000000000000000000, 0.0000000000000000000, 0.0000000000000000000 ) ) ;
#212 = SHAPE_DEFINITION_REPRESENTATION ( #131, #61 ) ;
#213 = DIRECTION ( 'NONE',  ( -0.7071067811865475700, 0.7071067811865474600, 0.0000000000000000000 ) ) ;
#214 = FACE_OUTER_BOUND ( 'NONE', #93, .T. ) ;
#215 = CARTESIAN_POINT ( 'NONE',  ( 20.00000000000000400, 20.00000000000000400, 20.00000000000000000 ) ) ;
#216 = AXIS2_PLACEMENT_3D ( 'NONE', #149, #143, #142 ) ;
#217 = DIRECTION ( 'NONE',  ( 0.7071067811865474600, 0.7071067811865475700, -0.0000000000000000000 ) ) ;
#218 = PERSON ( 'UNSPECIFIED', 'UNSPECIFIED', 'UNSPECIFIED', ('UNSPECIFIED'), ('UNSPECIFIED'), ('UNSPECIFIED') ) ;
#219 = VECTOR ( 'NONE', #167, 1000.000000000000000 ) ;
#220 = CARTESIAN_POINT ( 'NONE',  ( 20.00000000000000400, 20.00000000000000400, 0.0000000000000000000 ) ) ;
#221 = PRODUCT ( 'step_47124', 'step_47124', '', ( #32 ) ) ;
#222 = DIRECTION ( 'NONE',  ( -0.0000000000000000000, -0.0000000000000000000, -1.000000000000000000 ) ) ;
#223 = ADVANCED_FACE ( 'NONE', ( #214 ), #152, .F. ) ;
#224 = DIRECTION ( 'NONE',  ( -0.7071067811865475700, 0.7071067811865474600, 0.0000000000000000000 ) ) ;
#225 = VECTOR ( 'NONE', #90, 1000.000000000000000 ) ;
#226 = FACE_OUTER_BOUND ( 'NONE', #137, .T. ) ;
#227 = AXIS2_PLACEMENT_3D ( 'NONE', #228, #217, #213 ) ;
#228 = CARTESIAN_POINT ( 'NONE',  ( -1.836970198721029600E-015, 20.00000000000000000, 20.00000000000000000 ) ) ;
#229 = DATE_AND_TIME ( #92, #202 ) ;
#230 = ORIENTED_EDGE ( 'NONE', *, *, #288, .F. ) ;
#231 = CARTESIAN_POINT ( 'NONE',  ( 0.0000000000000000000, 0.0000000000000000000, 0.0000000000000000000 ) ) ;
#232 = EDGE_LOOP ( 'NONE', ( #301, #290, #114, #176 ) ) ;
#233 = CARTESIAN_POINT ( 'NONE',  ( 20.00000000000000000, 0.0000000000000000000, 0.0000000000000000000 ) ) ;
#234 = VERTEX_POINT ( 'NONE', #174 ) ;
#235 = PLANE ( 'NONE',  #227 ) ;
#236 = DIRECTION ( 'NONE',  ( 1.734723475976806800E-016, 1.000000000000000000, 0.0000000000000000000 ) ) ;
#237 = ORIENTED_EDGE ( 'NONE', *, *, #26, .F. ) ;
#238 = DIRECTION ( 'NONE',  ( 0.0000000000000000000, 1.000000000000000000, 0.0000000000000000000 ) ) ;
#239 = VECTOR ( 'NONE', #161, 1000.000000000000000 ) ;
#240 = DIRECTION ( 'NONE',  ( 1.734723475976806800E-016, 1.000000000000000000, 0.0000000000000000000 ) ) ;
#241 = VECTOR ( 'NONE', #193, 1000.000000000000000 ) ;
#242 = VERTEX_POINT ( 'NONE', #135 ) ;
#243 = CARTESIAN_POINT ( 'NONE',  ( -1.836970198721029600E-015, 20.00000000000000000, 0.0000000000000000000 ) ) ;
#244 = ADVANCED_FACE ( 'NONE', ( #133 ), #129, .F. ) ;
#245 = CARTESIAN_POINT ( 'NONE',  ( 20.00000000000000000, 0.0000000000000000000, 0.0000000000000000000 ) ) ;
#246 = ORIENTED_EDGE ( 'NONE', *, *, #67, .T. ) ;
#247 = MANIFOLD_SOLID_BREP ( 'Boss-Extrude2', #154 ) ;
#248 = PLANE ( 'NONE',  #199 ) ;
#249 = LOCAL_TIME ( 10, 57, 45.00000000000000000, #157 ) ;
#250 = CARTESIAN_POINT ( 'NONE',  ( 20.00000000000000000, 0.0000000000000000000, 20.00000000000000000 ) ) ;
#251 = VECTOR ( 'NONE', #82, 1000.000000000000000 ) ;
#252 = CC_DESIGN_APPROVAL ( #115, ( #314 ) ) ;
#253 = CARTESIAN_POINT ( 'NONE',  ( 20.00000000000000000, 0.0000000000000000000, 20.00000000000000000 ) ) ;
#254 = DATE_AND_TIME ( #163, #54 ) ;
#255 = ORIENTED_EDGE ( 'NONE', *, *, #106, .F. ) ;
#256 = VERTEX_POINT ( 'NONE', #140 ) ;
#257 = PERSON_AND_ORGANIZATION ( #218, #139 ) ;
#258 = ORIENTED_EDGE ( 'NONE', *, *, #179, .T. ) ;
#259 = DIRECTION ( 'NONE',  ( -0.0000000000000000000, -0.0000000000000000000, -1.000000000000000000 ) ) ;
#260 = CARTESIAN_POINT ( 'NONE',  ( 20.00000000000000000, 0.0000000000000000000, 20.00000000000000000 ) ) ;
#261 = LINE ( 'NONE', #184, #181 ) ;
#262 = DIRECTION ( 'NONE',  ( -0.7071067811865474600, -0.7071067811865475700, 0.0000000000000000000 ) ) ;
#263 = AXIS2_PLACEMENT_3D ( 'NONE', #76, #320, #73 ) ;
#264 = LOCAL_TIME ( 10, 57, 45.00000000000000000, #289 ) ;
#265 = MANIFOLD_SOLID_BREP ( 'Boss-Extrude1', #175 ) ;
#266 = COORDINATED_UNIVERSAL_TIME_OFFSET ( 7, 0, .BEHIND. ) ;
#267 = AXIS2_PLACEMENT_3D ( 'NONE', #144, #127, #126 ) ;
#268 = CARTESIAN_POINT ( 'NONE',  ( -1.836970198721029600E-015, 20.00000000000000000, 0.0000000000000000000 ) ) ;
#269 = ORIENTED_EDGE ( 'NONE', *, *, #195, .T. ) ;
#270 = VERTEX_POINT ( 'NONE', #117 ) ;
#271 = ADVANCED_FACE ( 'NONE', ( #18 ), #138, .T. ) ;
#272 = FACE_OUTER_BOUND ( 'NONE', #232, .T. ) ;
#273 = EDGE_CURVE ( 'NONE', #189, #270, #132, .T. ) ;
#274 = LOCAL_TIME ( 10, 57, 45.00000000000000000, #81 ) ;
#275 = CARTESIAN_POINT ( 'NONE',  ( -1.836970198721029600E-015, 20.00000000000000000, 20.00000000000000000 ) ) ;
#276 = ORIENTED_EDGE ( 'NONE', *, *, #70, .F. ) ;
#277 = CARTESIAN_POINT ( 'NONE',  ( 20.00000000000000400, 20.00000000000000400, 0.0000000000000000000 ) ) ;
#278 = AXIS2_PLACEMENT_3D ( 'NONE', #116, #105, #104 ) ;
#279 = VECTOR ( 'NONE', #113, 1000.000000000000000 ) ;
#280 = LINE ( 'NONE', #102, #279 ) ;
#281 = CARTESIAN_POINT ( 'NONE',  ( -1.836970198721029600E-015, 20.00000000000000000, 20.00000000000000000 ) ) ;
#282 = CARTESIAN_POINT ( 'NONE',  ( 20.00000000000000000, 0.0000000000000000000, 20.00000000000000000 ) ) ;
#283 = DIRECTION ( 'NONE',  ( -1.000000000000000000, 0.0000000000000000000, 0.0000000000000000000 ) ) ;
#284 = DIRECTION ( 'NONE',  ( 0.0000000000000000000, 0.0000000000000000000, -1.000000000000000000 ) ) ;
#285 = LINE ( 'NONE', #245, #172 ) ;
#286 = DIRECTION ( 'NONE',  ( 0.7071067811865475700, -0.7071067811865474600, 0.0000000000000000000 ) ) ;
#287 = AXIS2_PLACEMENT_3D ( 'NONE', #99, #69, #64 ) ;
#288 = EDGE_CURVE ( 'NONE', #270, #3, #280, .T. ) ;
#289 = COORDINATED_UNIVERSAL_TIME_OFFSET ( 7, 0, .BEHIND. ) ;
#290 = ORIENTED_EDGE ( 'NONE', *, *, #195, .F. ) ;
#291 = LINE ( 'NONE', #303, #20 ) ;
#292 = ORIENTED_EDGE ( 'NONE', *, *, #85, .T. ) ;
#293 = ADVANCED_FACE ( 'NONE', ( #8 ), #77, .F. ) ;
#294 = CARTESIAN_POINT ( 'NONE',  ( 0.0000000000000000000, 0.0000000000000000000, 0.0000000000000000000 ) ) ;
#295 = CALENDAR_DATE ( 2014, 12, 6 ) ;
#296 = VERTEX_POINT ( 'NONE', #96 ) ;
#297 = LINE ( 'NONE', #281, #205 ) ;
#298 = APPROVAL_DATE_TIME ( #318, #68 ) ;
#299 = DIRECTION ( 'NONE',  ( -0.0000000000000000000, -0.0000000000000000000, -1.000000000000000000 ) ) ;
#300 = PLANE ( 'NONE',  #192 ) ;
#301 = ORIENTED_EDGE ( 'NONE', *, *, #207, .T. ) ;
#302 = PERSON_AND_ORGANIZATION ( #218, #139 ) ;
#303 = CARTESIAN_POINT ( 'NONE',  ( -1.836970198721029600E-015, 20.00000000000000000, 20.00000000000000000 ) ) ;
#304 = EDGE_LOOP ( 'NONE', ( #196, #118, #311 ) ) ;
#305 = LINE ( 'NONE', #215, #103 ) ;
#306 = CARTESIAN_POINT ( 'NONE',  ( -1.836970198721029600E-015, 20.00000000000000000, 0.0000000000000000000 ) ) ;
#307 = COORDINATED_UNIVERSAL_TIME_OFFSET ( 7, 0, .BEHIND. ) ;
#308 = FACE_OUTER_BOUND ( 'NONE', #66, .T. ) ;
#309 = AXIS2_PLACEMENT_3D ( 'NONE', #53, #36, #35 ) ;
#310 = CALENDAR_DATE ( 2014, 12, 6 ) ;
#311 = ORIENTED_EDGE ( 'NONE', *, *, #197, .F. ) ;
#312 = DIRECTION ( 'NONE',  ( -0.0000000000000000000, -0.0000000000000000000, -1.000000000000000000 ) ) ;
#313 = LINE ( 'NONE', #166, #239 ) ;
#314 = PRODUCT_DEFINITION ( 'UNKNOWN', '', #136, #122 ) ;
#315 = ORIENTED_EDGE ( 'NONE', *, *, #22, .T. ) ;
#316 = CC_DESIGN_PERSON_AND_ORGANIZATION_ASSIGNMENT ( #97, #29, ( #221 ) ) ;
#317 = VECTOR ( 'NONE', #259, 1000.000000000000000 ) ;
#318 = DATE_AND_TIME ( #185, #274 ) ;
#319 = LINE ( 'NONE', #156, #210 ) ;
#320 = DIRECTION ( 'NONE',  ( 1.734723475976806600E-016, -1.000000000000000000, 0.0000000000000000000 ) ) ;
#321 = LINE ( 'NONE', #170, #219 ) ;
ENDSEC;
END-ISO-10303-21;
