ISO-10303-21;
HEADER;
FILE_DESCRIPTION (( 'STEP AP203' ),
    '1' );
FILE_NAME ('Web Model 83743_83743.step',
    '2017-04-24T19:21:08',
    ( '' ),
    ( '' ),
    'SwSTEP 2.0',
    'SolidWorks 2016',
    '' );
FILE_SCHEMA (( 'CONFIG_CONTROL_DESIGN' ));
ENDSEC;

DATA;
#1 = APPROVAL_STATUS ( 'not_yet_approved' ) ;
#2 = ORIENTED_EDGE ( 'NONE', *, *, #87, .F. ) ;
#3 = CARTESIAN_POINT ( 'NONE',  ( 0.0000000000000000000, 0.0000000000000000000, 0.6350000000000000100 ) ) ;
#4 = FACE_OUTER_BOUND ( 'NONE', #84, .T. ) ;
#5 = CARTESIAN_POINT ( 'NONE',  ( 0.0000000000000000000, 0.0000000000000000000, 0.6350000000000000100 ) ) ;
#6 = CIRCLE ( 'NONE', #244, 9.500000000000000000 ) ;
#7 = ORIENTED_EDGE ( 'NONE', *, *, #87, .T. ) ;
#8 = CALENDAR_DATE ( 2017, 24, 4 ) ;
#9 = PERSON_AND_ORGANIZATION ( #270, #242 ) ;
#10 = ORIENTED_EDGE ( 'NONE', *, *, #160, .T. ) ;
#11 = CYLINDRICAL_SURFACE ( 'NONE', #131, 9.500000000000000000 ) ;
#12 = CARTESIAN_POINT ( 'NONE',  ( 12.69999999999999900, 1.555301434917138400E-015, 0.6350000000000000100 ) ) ;
#13 = EDGE_CURVE ( 'NONE', #261, #40, #163, .T. ) ;
#14 = PLANE ( 'NONE',  #238 ) ;
#15 = VERTEX_POINT ( 'NONE', #303 ) ;
#16 = DATE_AND_TIME ( #82, #153 ) ;
#17 = PRODUCT_DEFINITION_FORMATION_WITH_SPECIFIED_SOURCE ( 'ANY', '', #61, .NOT_KNOWN. ) ;
#18 = CARTESIAN_POINT ( 'NONE',  ( 12.69999999999999900, 1.555301434917138400E-015, 0.6350000000000000100 ) ) ;
#19 = DIRECTION ( 'NONE',  ( 1.000000000000000000, 0.0000000000000000000, 0.0000000000000000000 ) ) ;
#20 = ORIENTED_EDGE ( 'NONE', *, *, #102, .F. ) ;
#21 = APPROVAL_DATE_TIME ( #90, #88 ) ;
#22 = LINE ( 'NONE', #141, #294 ) ;
#23 = PLANE ( 'NONE',  #290 ) ;
#24 = DIRECTION ( 'NONE',  ( 0.0000000000000000000, 0.0000000000000000000, 1.000000000000000000 ) ) ;
#25 = FACE_OUTER_BOUND ( 'NONE', #284, .T. ) ;
#26 =( NAMED_UNIT ( * ) SI_UNIT ( $, .STERADIAN. ) SOLID_ANGLE_UNIT ( ) );
#27 = DIRECTION ( 'NONE',  ( 0.0000000000000000000, 0.0000000000000000000, 1.000000000000000000 ) ) ;
#28 = PERSON_AND_ORGANIZATION_ROLE ( 'creator' ) ;
#29 = DIRECTION ( 'NONE',  ( 1.000000000000000000, 0.0000000000000000000, -0.0000000000000000000 ) ) ;
#30 = EDGE_CURVE ( 'NONE', #203, #209, #231, .T. ) ;
#31 = DIRECTION ( 'NONE',  ( 1.000000000000000000, 0.0000000000000000000, 0.0000000000000000000 ) ) ;
#32 = ORIENTED_EDGE ( 'NONE', *, *, #30, .T. ) ;
#33 = APPROVAL_PERSON_ORGANIZATION ( #94, #88, #180 ) ;
#34 = ORIENTED_EDGE ( 'NONE', *, *, #13, .F. ) ;
#35 = CARTESIAN_POINT ( 'NONE',  ( -9.500000000000000000, 0.0000000000000000000, -0.6350000000000000100 ) ) ;
#36 = APPROVAL ( #50, 'UNSPECIFIED' ) ;
#37 = ADVANCED_FACE ( 'NONE', ( #234 ), #11, .F. ) ;
#38 = AXIS2_PLACEMENT_3D ( 'NONE', #283, #259, #99 ) ;
#39 = ORIENTED_EDGE ( 'NONE', *, *, #213, .F. ) ;
#40 = VERTEX_POINT ( 'NONE', #229 ) ;
#41 = ORIENTED_EDGE ( 'NONE', *, *, #298, .T. ) ;
#42 = ORIENTED_EDGE ( 'NONE', *, *, #298, .F. ) ;
#43 = EDGE_CURVE ( 'NONE', #40, #80, #304, .T. ) ;
#44 = FACE_OUTER_BOUND ( 'NONE', #219, .T. ) ;
#45 = CC_DESIGN_APPROVAL ( #36, ( #17 ) ) ;
#46 = DIRECTION ( 'NONE',  ( -1.000000000000000000, 0.0000000000000000000, 0.0000000000000000000 ) ) ;
#47 = DIRECTION ( 'NONE',  ( 0.0000000000000000000, 0.0000000000000000000, 1.000000000000000000 ) ) ;
#48 = APPLICATION_PROTOCOL_DEFINITION ( 'international standard', 'config_control_design', 1994, #73 ) ;
#49 = CARTESIAN_POINT ( 'NONE',  ( 12.69999999999999900, 1.555301434917138400E-015, -0.6350000000000000100 ) ) ;
#50 = APPROVAL_STATUS ( 'not_yet_approved' ) ;
#51 = EDGE_LOOP ( 'NONE', ( #324, #10, #264, #39 ) ) ;
#52 = DIRECTION ( 'NONE',  ( -1.000000000000000000, 0.0000000000000000000, 0.0000000000000000000 ) ) ;
#53 = CC_DESIGN_PERSON_AND_ORGANIZATION_ASSIGNMENT ( #169, #126, ( #61 ) ) ;
#54 = DIRECTION ( 'NONE',  ( -0.0000000000000000000, -0.0000000000000000000, -1.000000000000000000 ) ) ;
#55 = LOCAL_TIME ( 15, 21, 8.000000000000000000, #124 ) ;
#56 = ADVANCED_FACE ( 'NONE', ( #25 ), #149, .T. ) ;
#57 = CARTESIAN_POINT ( 'NONE',  ( 0.0000000000000000000, 0.0000000000000000000, -0.6350000000000000100 ) ) ;
#58 = EDGE_LOOP ( 'NONE', ( #32, #253 ) ) ;
#59 = CARTESIAN_POINT ( 'NONE',  ( 0.0000000000000000000, 0.0000000000000000000, -0.6350000000000000100 ) ) ;
#60 = EDGE_CURVE ( 'NONE', #209, #203, #164, .T. ) ;
#61 = PRODUCT ( 'Web Model 83743_83743', 'Web Model 83743_83743', '', ( #287 ) ) ;
#62 = LINE ( 'NONE', #112, #332 ) ;
#63 = DIRECTION ( 'NONE',  ( 0.0000000000000000000, 0.0000000000000000000, 1.000000000000000000 ) ) ;
#64 = ADVANCED_BREP_SHAPE_REPRESENTATION ( 'Web Model 83743_83743', ( #251, #185, #38 ), #306 ) ;
#65 = CC_DESIGN_PERSON_AND_ORGANIZATION_ASSIGNMENT ( #72, #77, ( #17 ) ) ;
#66 = CALENDAR_DATE ( 2017, 24, 4 ) ;
#67 = VERTEX_POINT ( 'NONE', #156 ) ;
#68 = PRODUCT_DEFINITION ( 'UNKNOWN', '', #17, #305 ) ;
#69 = ORIENTED_EDGE ( 'NONE', *, *, #13, .T. ) ;
#70 = LOCAL_TIME ( 15, 21, 8.000000000000000000, #145 ) ;
#71 = DIRECTION ( 'NONE',  ( 0.0000000000000000000, 0.0000000000000000000, 1.000000000000000000 ) ) ;
#72 = PERSON_AND_ORGANIZATION ( #270, #242 ) ;
#73 = APPLICATION_CONTEXT ( 'configuration controlled 3d designs of mechanical parts and assemblies' ) ;
#74 = CIRCLE ( 'NONE', #220, 12.69999999999999900 ) ;
#75 = ORIENTED_EDGE ( 'NONE', *, *, #331, .T. ) ;
#76 = VECTOR ( 'NONE', #125, 1000.000000000000000 ) ;
#77 = PERSON_AND_ORGANIZATION_ROLE ( 'creator' ) ;
#78 = AXIS2_PLACEMENT_3D ( 'NONE', #328, #173, #19 ) ;
#79 = CIRCLE ( 'NONE', #225, 12.69999999999999900 ) ;
#80 = VERTEX_POINT ( 'NONE', #282 ) ;
#81 = AXIS2_PLACEMENT_3D ( 'NONE', #146, #199, #46 ) ;
#82 = CALENDAR_DATE ( 2017, 24, 4 ) ;
#83 = CC_DESIGN_PERSON_AND_ORGANIZATION_ASSIGNMENT ( #9, #260, ( #17 ) ) ;
#84 = EDGE_LOOP ( 'NONE', ( #319, #109 ) ) ;
#85 = ADVANCED_FACE ( 'NONE', ( #98 ), #113, .F. ) ;
#86 = DIRECTION ( 'NONE',  ( 1.000000000000000000, 0.0000000000000000000, 0.0000000000000000000 ) ) ;
#87 = EDGE_CURVE ( 'NONE', #106, #80, #91, .T. ) ;
#88 = APPROVAL ( #1, 'UNSPECIFIED' ) ;
#89 = DIRECTION ( 'NONE',  ( 0.0000000000000000000, 0.0000000000000000000, 1.000000000000000000 ) ) ;
#90 = DATE_AND_TIME ( #162, #230 ) ;
#91 = LINE ( 'NONE', #286, #76 ) ;
#92 = EDGE_LOOP ( 'NONE', ( #75, #224 ) ) ;
#93 = AXIS2_PLACEMENT_3D ( 'NONE', #179, #27, #210 ) ;
#94 = PERSON_AND_ORGANIZATION ( #270, #242 ) ;
#95 = EDGE_LOOP ( 'NONE', ( #20, #69, #170, #2 ) ) ;
#96 = SECURITY_CLASSIFICATION ( '', '', #101 ) ;
#97 = DIRECTION ( 'NONE',  ( -0.0000000000000000000, -0.0000000000000000000, -1.000000000000000000 ) ) ;
#98 = FACE_OUTER_BOUND ( 'NONE', #144, .T. ) ;
#99 = DIRECTION ( 'NONE',  ( 1.000000000000000000, 0.0000000000000000000, 0.0000000000000000000 ) ) ;
#100 = CARTESIAN_POINT ( 'NONE',  ( 0.0000000000000000000, 0.0000000000000000000, 0.6350000000000000100 ) ) ;
#101 = SECURITY_CLASSIFICATION_LEVEL ( 'unclassified' ) ;
#102 = EDGE_CURVE ( 'NONE', #261, #106, #119, .T. ) ;
#103 = CARTESIAN_POINT ( 'NONE',  ( 0.0000000000000000000, 0.0000000000000000000, -0.6350000000000000100 ) ) ;
#104 = CC_DESIGN_APPROVAL ( #88, ( #68 ) ) ;
#105 = EDGE_LOOP ( 'NONE', ( #215, #148, #41, #250 ) ) ;
#106 = VERTEX_POINT ( 'NONE', #336 ) ;
#107 = ORIENTED_EDGE ( 'NONE', *, *, #246, .T. ) ;
#108 = PRODUCT_DEFINITION_SHAPE ( 'NONE', 'NONE',  #68 ) ;
#109 = ORIENTED_EDGE ( 'NONE', *, *, #43, .F. ) ;
#110 = DIRECTION ( 'NONE',  ( 0.0000000000000000000, 0.0000000000000000000, 1.000000000000000000 ) ) ;
#111 = AXIS2_PLACEMENT_3D ( 'NONE', #232, #71, #256 ) ;
#112 = CARTESIAN_POINT ( 'NONE',  ( 12.69999999999999900, 1.555301434917138400E-015, 0.6350000000000000100 ) ) ;
#113 = CYLINDRICAL_SURFACE ( 'NONE', #114, 9.500000000000000000 ) ;
#114 = AXIS2_PLACEMENT_3D ( 'NONE', #312, #97, #235 ) ;
#115 = CC_DESIGN_PERSON_AND_ORGANIZATION_ASSIGNMENT ( #276, #289, ( #96 ) ) ;
#116 = DIRECTION ( 'NONE',  ( -1.000000000000000000, 0.0000000000000000000, 0.0000000000000000000 ) ) ;
#117 = ORIENTED_EDGE ( 'NONE', *, *, #142, .F. ) ;
#118 = EDGE_CURVE ( 'NONE', #106, #261, #333, .T. ) ;
#119 = CIRCLE ( 'NONE', #93, 12.69999999999999900 ) ;
#120 = UNCERTAINTY_MEASURE_WITH_UNIT (LENGTH_MEASURE( 1.000000000000000100E-005 ), #300, 'distance_accuracy_value', 'NONE');
#121 = ORIENTED_EDGE ( 'NONE', *, *, #30, .F. ) ;
#122 = DIRECTION ( 'NONE',  ( 0.0000000000000000000, 0.0000000000000000000, 1.000000000000000000 ) ) ;
#123 = CARTESIAN_POINT ( 'NONE',  ( 0.0000000000000000000, 0.0000000000000000000, -0.6350000000000000100 ) ) ;
#124 = COORDINATED_UNIVERSAL_TIME_OFFSET ( 5, 0, .BEHIND. ) ;
#125 = DIRECTION ( 'NONE',  ( -0.0000000000000000000, -0.0000000000000000000, -1.000000000000000000 ) ) ;
#126 = PERSON_AND_ORGANIZATION_ROLE ( 'design_owner' ) ;
#127 = VERTEX_POINT ( 'NONE', #49 ) ;
#128 = DIRECTION ( 'NONE',  ( 1.000000000000000000, 0.0000000000000000000, 0.0000000000000000000 ) ) ;
#129 = DATE_TIME_ROLE ( 'classification_date' ) ;
#130 = DIRECTION ( 'NONE',  ( 1.000000000000000000, 0.0000000000000000000, 0.0000000000000000000 ) ) ;
#131 = AXIS2_PLACEMENT_3D ( 'NONE', #275, #228, #116 ) ;
#132 = AXIS2_PLACEMENT_3D ( 'NONE', #100, #288, #128 ) ;
#133 = FACE_OUTER_BOUND ( 'NONE', #279, .T. ) ;
#134 = VERTEX_POINT ( 'NONE', #35 ) ;
#135 = CC_DESIGN_DATE_AND_TIME_ASSIGNMENT ( #337, #129, ( #96 ) ) ;
#136 = LOCAL_TIME ( 15, 21, 8.000000000000000000, #208 ) ;
#137 = CARTESIAN_POINT ( 'NONE',  ( 0.0000000000000000000, 0.0000000000000000000, -0.6350000000000000100 ) ) ;
#138 = VERTEX_POINT ( 'NONE', #315 ) ;
#139 = ADVANCED_FACE ( 'NONE', ( #196 ), #159, .T. ) ;
#140 = CIRCLE ( 'NONE', #310, 9.500000000000000000 ) ;
#141 = CARTESIAN_POINT ( 'NONE',  ( -12.69999999999999900, 0.0000000000000000000, 0.6350000000000000100 ) ) ;
#142 = EDGE_CURVE ( 'NONE', #15, #127, #175, .T. ) ;
#143 = VECTOR ( 'NONE', #212, 1000.000000000000000 ) ;
#144 = EDGE_LOOP ( 'NONE', ( #182, #277, #152, #243 ) ) ;
#145 = COORDINATED_UNIVERSAL_TIME_OFFSET ( 5, 0, .BEHIND. ) ;
#146 = CARTESIAN_POINT ( 'NONE',  ( 0.0000000000000000000, 0.0000000000000000000, 0.6350000000000000100 ) ) ;
#147 = APPROVAL_DATE_TIME ( #217, #36 ) ;
#148 = ORIENTED_EDGE ( 'NONE', *, *, #317, .T. ) ;
#149 = CYLINDRICAL_SURFACE ( 'NONE', #81, 12.69999999999999900 ) ;
#150 = AXIS2_PLACEMENT_3D ( 'NONE', #176, #24, #207 ) ;
#151 = FACE_OUTER_BOUND ( 'NONE', #307, .T. ) ;
#152 = ORIENTED_EDGE ( 'NONE', *, *, #331, .F. ) ;
#153 = LOCAL_TIME ( 15, 21, 8.000000000000000000, #226 ) ;
#154 = DIRECTION ( 'NONE',  ( -0.0000000000000000000, -0.0000000000000000000, -1.000000000000000000 ) ) ;
#155 = APPROVAL ( #316, 'UNSPECIFIED' ) ;
#156 = CARTESIAN_POINT ( 'NONE',  ( 9.500000000000000000, 1.163414459189985500E-015, 0.6350000000000000100 ) ) ;
#157 = DIRECTION ( 'NONE',  ( 1.000000000000000000, 0.0000000000000000000, 0.0000000000000000000 ) ) ;
#158 = APPLICATION_PROTOCOL_DEFINITION ( 'international standard', 'config_control_design', 1994, #314 ) ;
#159 = PLANE ( 'NONE',  #186 ) ;
#160 = EDGE_CURVE ( 'NONE', #67, #138, #184, .T. ) ;
#161 = CARTESIAN_POINT ( 'NONE',  ( 0.0000000000000000000, 0.0000000000000000000, 0.6350000000000000100 ) ) ;
#162 = CALENDAR_DATE ( 2017, 24, 4 ) ;
#163 = LINE ( 'NONE', #18, #295 ) ;
#164 = CIRCLE ( 'NONE', #150, 12.69999999999999900 ) ;
#165 = FACE_OUTER_BOUND ( 'NONE', #95, .T. ) ;
#166 = ADVANCED_FACE ( 'NONE', ( #326 ), #272, .T. ) ;
#167 = DIRECTION ( 'NONE',  ( 1.000000000000000000, 0.0000000000000000000, 0.0000000000000000000 ) ) ;
#168 = EDGE_LOOP ( 'NONE', ( #330, #240 ) ) ;
#169 = PERSON_AND_ORGANIZATION ( #270, #242 ) ;
#170 = ORIENTED_EDGE ( 'NONE', *, *, #43, .T. ) ;
#171 = AXIS2_PLACEMENT_3D ( 'NONE', #103, #291, #130 ) ;
#172 = CC_DESIGN_APPROVAL ( #155, ( #96 ) ) ;
#173 = DIRECTION ( 'NONE',  ( 0.0000000000000000000, 0.0000000000000000000, 1.000000000000000000 ) ) ;
#174 = EDGE_CURVE ( 'NONE', #67, #273, #252, .T. ) ;
#175 = CIRCLE ( 'NONE', #171, 12.69999999999999900 ) ;
#176 = CARTESIAN_POINT ( 'NONE',  ( 0.0000000000000000000, 0.0000000000000000000, 0.6350000000000000100 ) ) ;
#177 = ORIENTED_EDGE ( 'NONE', *, *, #102, .T. ) ;
#178 =( NAMED_UNIT ( * ) PLANE_ANGLE_UNIT ( ) SI_UNIT ( $, .RADIAN. ) );
#179 = CARTESIAN_POINT ( 'NONE',  ( 0.0000000000000000000, 0.0000000000000000000, 0.6350000000000000100 ) ) ;
#180 = APPROVAL_ROLE ( '' ) ;
#181 = DIRECTION ( 'NONE',  ( 0.0000000000000000000, 0.0000000000000000000, 1.000000000000000000 ) ) ;
#182 = ORIENTED_EDGE ( 'NONE', *, *, #262, .T. ) ;
#183 = DIRECTION ( 'NONE',  ( 0.0000000000000000000, 0.0000000000000000000, 1.000000000000000000 ) ) ;
#184 = CIRCLE ( 'NONE', #204, 9.500000000000000000 ) ;
#185 = MANIFOLD_SOLID_BREP ( 'Boss-Extrude2', #248 ) ;
#186 = AXIS2_PLACEMENT_3D ( 'NONE', #3, #181, #29 ) ;
#187 = CC_DESIGN_SECURITY_CLASSIFICATION ( #96, ( #17 ) ) ;
#188 = ADVANCED_FACE ( 'NONE', ( #151 ), #285, .T. ) ;
#189 = APPROVAL_DATE_TIME ( #258, #155 ) ;
#190 = CARTESIAN_POINT ( 'NONE',  ( 0.0000000000000000000, 0.0000000000000000000, 0.6350000000000000100 ) ) ;
#191 = ORIENTED_EDGE ( 'NONE', *, *, #317, .F. ) ;
#192 = PLANE ( 'NONE',  #201 ) ;
#193 = EDGE_CURVE ( 'NONE', #80, #40, #79, .T. ) ;
#194 = DIRECTION ( 'NONE',  ( -0.0000000000000000000, -0.0000000000000000000, -1.000000000000000000 ) ) ;
#195 = CIRCLE ( 'NONE', #268, 9.500000000000000000 ) ;
#196 = FACE_OUTER_BOUND ( 'NONE', #58, .T. ) ;
#197 = ORIENTED_EDGE ( 'NONE', *, *, #118, .T. ) ;
#198 = DIRECTION ( 'NONE',  ( -0.0000000000000000000, -0.0000000000000000000, -1.000000000000000000 ) ) ;
#199 = DIRECTION ( 'NONE',  ( -0.0000000000000000000, -0.0000000000000000000, -1.000000000000000000 ) ) ;
#200 = APPROVAL_PERSON_ORGANIZATION ( #265, #155, #241 ) ;
#201 = AXIS2_PLACEMENT_3D ( 'NONE', #59, #110, #299 ) ;
#202 = ORIENTED_EDGE ( 'NONE', *, *, #118, .F. ) ;
#203 = VERTEX_POINT ( 'NONE', #318 ) ;
#204 = AXIS2_PLACEMENT_3D ( 'NONE', #5, #183, #31 ) ;
#205 = CARTESIAN_POINT ( 'NONE',  ( 0.0000000000000000000, 0.0000000000000000000, 0.6350000000000000100 ) ) ;
#206 = PRODUCT_RELATED_PRODUCT_CATEGORY ( 'detail', '', ( #61 ) ) ;
#207 = DIRECTION ( 'NONE',  ( 1.000000000000000000, 0.0000000000000000000, 0.0000000000000000000 ) ) ;
#208 = COORDINATED_UNIVERSAL_TIME_OFFSET ( 5, 0, .BEHIND. ) ;
#209 = VERTEX_POINT ( 'NONE', #257 ) ;
#210 = DIRECTION ( 'NONE',  ( 1.000000000000000000, 0.0000000000000000000, 0.0000000000000000000 ) ) ;
#211 = DATE_TIME_ROLE ( 'creation_date' ) ;
#212 = DIRECTION ( 'NONE',  ( -0.0000000000000000000, -0.0000000000000000000, -1.000000000000000000 ) ) ;
#213 = EDGE_CURVE ( 'NONE', #273, #134, #6, .T. ) ;
#214 = CARTESIAN_POINT ( 'NONE',  ( 9.500000000000000000, 1.163414459189985500E-015, 0.6350000000000000100 ) ) ;
#215 = ORIENTED_EDGE ( 'NONE', *, *, #60, .F. ) ;
#216 = APPROVAL_PERSON_ORGANIZATION ( #280, #36, #237 ) ;
#217 = DATE_AND_TIME ( #8, #70 ) ;
#218 = ADVANCED_FACE ( 'NONE', ( #165 ), #227, .T. ) ;
#219 = EDGE_LOOP ( 'NONE', ( #197, #177 ) ) ;
#220 = AXIS2_PLACEMENT_3D ( 'NONE', #281, #122, #311 ) ;
#221 = DIRECTION ( 'NONE',  ( -0.0000000000000000000, -0.0000000000000000000, -1.000000000000000000 ) ) ;
#222 = CARTESIAN_POINT ( 'NONE',  ( 0.0000000000000000000, 0.0000000000000000000, -0.6350000000000000100 ) ) ;
#223 = FACE_BOUND ( 'NONE', #168, .T. ) ;
#224 = ORIENTED_EDGE ( 'NONE', *, *, #213, .T. ) ;
#225 = AXIS2_PLACEMENT_3D ( 'NONE', #137, #322, #167 ) ;
#226 = COORDINATED_UNIVERSAL_TIME_OFFSET ( 5, 0, .BEHIND. ) ;
#227 = CYLINDRICAL_SURFACE ( 'NONE', #327, 12.69999999999999900 ) ;
#228 = DIRECTION ( 'NONE',  ( -0.0000000000000000000, -0.0000000000000000000, -1.000000000000000000 ) ) ;
#229 = CARTESIAN_POINT ( 'NONE',  ( 12.69999999999999900, 1.555301434917138400E-015, -0.6350000000000000100 ) ) ;
#230 = LOCAL_TIME ( 15, 21, 8.000000000000000000, #301 ) ;
#231 = CIRCLE ( 'NONE', #78, 12.69999999999999900 ) ;
#232 = CARTESIAN_POINT ( 'NONE',  ( 0.0000000000000000000, 0.0000000000000000000, -0.6350000000000000100 ) ) ;
#233 = DIRECTION ( 'NONE',  ( 1.000000000000000000, 0.0000000000000000000, -0.0000000000000000000 ) ) ;
#234 = FACE_OUTER_BOUND ( 'NONE', #51, .T. ) ;
#235 = DIRECTION ( 'NONE',  ( -1.000000000000000000, 0.0000000000000000000, 0.0000000000000000000 ) ) ;
#236 = LINE ( 'NONE', #325, #302 ) ;
#237 = APPROVAL_ROLE ( '' ) ;
#238 = AXIS2_PLACEMENT_3D ( 'NONE', #222, #63, #249 ) ;
#239 = DIRECTION ( 'NONE',  ( -0.0000000000000000000, -0.0000000000000000000, -1.000000000000000000 ) ) ;
#240 = ORIENTED_EDGE ( 'NONE', *, *, #160, .F. ) ;
#241 = APPROVAL_ROLE ( '' ) ;
#242 = ORGANIZATION ( 'UNSPECIFIED', 'UNSPECIFIED', '' ) ;
#243 = ORIENTED_EDGE ( 'NONE', *, *, #278, .F. ) ;
#244 = AXIS2_PLACEMENT_3D ( 'NONE', #57, #245, #86 ) ;
#245 = DIRECTION ( 'NONE',  ( 0.0000000000000000000, 0.0000000000000000000, 1.000000000000000000 ) ) ;
#246 = EDGE_CURVE ( 'NONE', #203, #15, #22, .T. ) ;
#247 = CARTESIAN_POINT ( 'NONE',  ( 0.0000000000000000000, 0.0000000000000000000, 0.6350000000000000100 ) ) ;
#248 = CLOSED_SHELL ( 'NONE', ( #85, #218, #321, #266, #188, #37 ) ) ;
#249 = DIRECTION ( 'NONE',  ( 1.000000000000000000, 0.0000000000000000000, -0.0000000000000000000 ) ) ;
#250 = ORIENTED_EDGE ( 'NONE', *, *, #246, .F. ) ;
#251 = MANIFOLD_SOLID_BREP ( 'Boss-Extrude1', #334 ) ;
#252 = LINE ( 'NONE', #214, #143 ) ;
#253 = ORIENTED_EDGE ( 'NONE', *, *, #60, .T. ) ;
#254 = FACE_BOUND ( 'NONE', #92, .T. ) ;
#255 = AXIS2_PLACEMENT_3D ( 'NONE', #161, #239, #52 ) ;
#256 = DIRECTION ( 'NONE',  ( 1.000000000000000000, 0.0000000000000000000, 0.0000000000000000000 ) ) ;
#257 = CARTESIAN_POINT ( 'NONE',  ( 12.69999999999999900, 1.555301434917138400E-015, 0.6350000000000000100 ) ) ;
#258 = DATE_AND_TIME ( #329, #55 ) ;
#259 = DIRECTION ( 'NONE',  ( 0.0000000000000000000, 0.0000000000000000000, 1.000000000000000000 ) ) ;
#260 = PERSON_AND_ORGANIZATION_ROLE ( 'design_supplier' ) ;
#261 = VERTEX_POINT ( 'NONE', #12 ) ;
#262 = EDGE_CURVE ( 'NONE', #138, #67, #140, .T. ) ;
#263 = DIRECTION ( 'NONE',  ( -1.000000000000000000, 0.0000000000000000000, 0.0000000000000000000 ) ) ;
#264 = ORIENTED_EDGE ( 'NONE', *, *, #278, .T. ) ;
#265 = PERSON_AND_ORGANIZATION ( #270, #242 ) ;
#266 = ADVANCED_FACE ( 'NONE', ( #4, #254 ), #192, .F. ) ;
#267 = ORIENTED_EDGE ( 'NONE', *, *, #142, .T. ) ;
#268 = AXIS2_PLACEMENT_3D ( 'NONE', #123, #313, #157 ) ;
#269 = DIRECTION ( 'NONE',  ( -1.000000000000000000, 0.0000000000000000000, 0.0000000000000000000 ) ) ;
#270 = PERSON ( 'UNSPECIFIED', 'UNSPECIFIED', 'UNSPECIFIED', ('UNSPECIFIED'), ('UNSPECIFIED'), ('UNSPECIFIED') ) ;
#271 = DIRECTION ( 'NONE',  ( 1.000000000000000000, 0.0000000000000000000, 0.0000000000000000000 ) ) ;
#272 = CYLINDRICAL_SURFACE ( 'NONE', #255, 12.69999999999999900 ) ;
#273 = VERTEX_POINT ( 'NONE', #323 ) ;
#274 = AXIS2_PLACEMENT_3D ( 'NONE', #292, #54, #263 ) ;
#275 = CARTESIAN_POINT ( 'NONE',  ( 0.0000000000000000000, 0.0000000000000000000, 0.6350000000000000100 ) ) ;
#276 = PERSON_AND_ORGANIZATION ( #270, #242 ) ;
#277 = ORIENTED_EDGE ( 'NONE', *, *, #174, .T. ) ;
#278 = EDGE_CURVE ( 'NONE', #138, #134, #236, .T. ) ;
#279 = EDGE_LOOP ( 'NONE', ( #117, #42 ) ) ;
#280 = PERSON_AND_ORGANIZATION ( #270, #242 ) ;
#281 = CARTESIAN_POINT ( 'NONE',  ( 0.0000000000000000000, 0.0000000000000000000, -0.6350000000000000100 ) ) ;
#282 = CARTESIAN_POINT ( 'NONE',  ( -12.69999999999999900, 0.0000000000000000000, -0.6350000000000000100 ) ) ;
#283 = CARTESIAN_POINT ( 'NONE',  ( 0.0000000000000000000, 0.0000000000000000000, 0.0000000000000000000 ) ) ;
#284 = EDGE_LOOP ( 'NONE', ( #191, #121, #107, #267 ) ) ;
#286 = CARTESIAN_POINT ( 'NONE',  ( -12.69999999999999900, 0.0000000000000000000, 0.6350000000000000100 ) ) ;
#285 = CYLINDRICAL_SURFACE ( 'NONE', #274, 12.69999999999999900 ) ;
#287 = MECHANICAL_CONTEXT ( 'NONE', #73, 'mechanical' ) ;
#288 = DIRECTION ( 'NONE',  ( 0.0000000000000000000, 0.0000000000000000000, 1.000000000000000000 ) ) ;
#289 = PERSON_AND_ORGANIZATION_ROLE ( 'classification_officer' ) ;
#290 = AXIS2_PLACEMENT_3D ( 'NONE', #205, #47, #233 ) ;
#291 = DIRECTION ( 'NONE',  ( 0.0000000000000000000, 0.0000000000000000000, 1.000000000000000000 ) ) ;
#292 = CARTESIAN_POINT ( 'NONE',  ( 0.0000000000000000000, 0.0000000000000000000, 0.6350000000000000100 ) ) ;
#293 = PERSON_AND_ORGANIZATION ( #270, #242 ) ;
#294 = VECTOR ( 'NONE', #297, 1000.000000000000000 ) ;
#295 = VECTOR ( 'NONE', #198, 1000.000000000000000 ) ;
#296 = ADVANCED_FACE ( 'NONE', ( #133 ), #14, .F. ) ;
#297 = DIRECTION ( 'NONE',  ( -0.0000000000000000000, -0.0000000000000000000, -1.000000000000000000 ) ) ;
#298 = EDGE_CURVE ( 'NONE', #127, #15, #74, .T. ) ;
#299 = DIRECTION ( 'NONE',  ( 1.000000000000000000, 0.0000000000000000000, -0.0000000000000000000 ) ) ;
#300 =( LENGTH_UNIT ( ) NAMED_UNIT ( * ) SI_UNIT ( .MILLI., .METRE. ) );
#301 = COORDINATED_UNIVERSAL_TIME_OFFSET ( 5, 0, .BEHIND. ) ;
#302 = VECTOR ( 'NONE', #194, 1000.000000000000000 ) ;
#303 = CARTESIAN_POINT ( 'NONE',  ( -12.69999999999999900, 0.0000000000000000000, -0.6350000000000000100 ) ) ;
#304 = CIRCLE ( 'NONE', #111, 12.69999999999999900 ) ;
#305 = DESIGN_CONTEXT ( 'detailed design', #314, 'design' ) ;
#306 =( GEOMETRIC_REPRESENTATION_CONTEXT ( 3 ) GLOBAL_UNCERTAINTY_ASSIGNED_CONTEXT ( ( #120 ) ) GLOBAL_UNIT_ASSIGNED_CONTEXT ( ( #300, #178, #26 ) ) REPRESENTATION_CONTEXT ( 'NONE', 'WORKASPACE' ) );
#307 = EDGE_LOOP ( 'NONE', ( #34, #202, #7, #309 ) ) ;
#308 = SHAPE_DEFINITION_REPRESENTATION ( #108, #64 ) ;
#309 = ORIENTED_EDGE ( 'NONE', *, *, #193, .T. ) ;
#310 = AXIS2_PLACEMENT_3D ( 'NONE', #247, #89, #271 ) ;
#311 = DIRECTION ( 'NONE',  ( 1.000000000000000000, 0.0000000000000000000, 0.0000000000000000000 ) ) ;
#312 = CARTESIAN_POINT ( 'NONE',  ( 0.0000000000000000000, 0.0000000000000000000, 0.6350000000000000100 ) ) ;
#313 = DIRECTION ( 'NONE',  ( 0.0000000000000000000, 0.0000000000000000000, 1.000000000000000000 ) ) ;
#314 = APPLICATION_CONTEXT ( 'configuration controlled 3d designs of mechanical parts and assemblies' ) ;
#315 = CARTESIAN_POINT ( 'NONE',  ( -9.500000000000000000, 0.0000000000000000000, 0.6350000000000000100 ) ) ;
#316 = APPROVAL_STATUS ( 'not_yet_approved' ) ;
#317 = EDGE_CURVE ( 'NONE', #209, #127, #62, .T. ) ;
#318 = CARTESIAN_POINT ( 'NONE',  ( -12.69999999999999900, 0.0000000000000000000, 0.6350000000000000100 ) ) ;
#319 = ORIENTED_EDGE ( 'NONE', *, *, #193, .F. ) ;
#320 = CC_DESIGN_PERSON_AND_ORGANIZATION_ASSIGNMENT ( #293, #28, ( #68 ) ) ;
#321 = ADVANCED_FACE ( 'NONE', ( #44, #223 ), #23, .T. ) ;
#322 = DIRECTION ( 'NONE',  ( 0.0000000000000000000, 0.0000000000000000000, 1.000000000000000000 ) ) ;
#323 = CARTESIAN_POINT ( 'NONE',  ( 9.500000000000000000, 1.163414459189985500E-015, -0.6350000000000000100 ) ) ;
#324 = ORIENTED_EDGE ( 'NONE', *, *, #174, .F. ) ;
#325 = CARTESIAN_POINT ( 'NONE',  ( -9.500000000000000000, 0.0000000000000000000, 0.6350000000000000100 ) ) ;
#326 = FACE_OUTER_BOUND ( 'NONE', #105, .T. ) ;
#327 = AXIS2_PLACEMENT_3D ( 'NONE', #190, #221, #269 ) ;
#328 = CARTESIAN_POINT ( 'NONE',  ( 0.0000000000000000000, 0.0000000000000000000, 0.6350000000000000100 ) ) ;
#329 = CALENDAR_DATE ( 2017, 24, 4 ) ;
#330 = ORIENTED_EDGE ( 'NONE', *, *, #262, .F. ) ;
#331 = EDGE_CURVE ( 'NONE', #134, #273, #195, .T. ) ;
#332 = VECTOR ( 'NONE', #154, 1000.000000000000000 ) ;
#333 = CIRCLE ( 'NONE', #132, 12.69999999999999900 ) ;
#334 = CLOSED_SHELL ( 'NONE', ( #166, #56, #139, #296 ) ) ;
#335 = CC_DESIGN_DATE_AND_TIME_ASSIGNMENT ( #16, #211, ( #68 ) ) ;
#336 = CARTESIAN_POINT ( 'NONE',  ( -12.69999999999999900, 0.0000000000000000000, 0.6350000000000000100 ) ) ;
#337 = DATE_AND_TIME ( #66, #136 ) ;
ENDSEC;
END-ISO-10303-21;
