ISO-10303-21;
HEADER;
FILE_DESCRIPTION (( 'STEP AP203' ),
    '1' );
FILE_NAME ('10642-E0W.STEP',
    '2020-10-09T18:56:10',
    ( '' ),
    ( '' ),
    'SwSTEP 2.0',
    'SolidWorks 2018',
    '' );
FILE_SCHEMA (( 'CONFIG_CONTROL_DESIGN' ));
ENDSEC;

DATA;
#1 = CARTESIAN_POINT ( 'NONE',  ( 0.000000000000000000, 0.000000000000000000, -0.5000000000000000000 ) ) ;
#2 = PLANE ( 'NONE',  #18 ) ;
#3 = COORDINATED_UNIVERSAL_TIME_OFFSET ( 5, 0, .BEHIND. ) ;
#4 = AXIS2_PLACEMENT_3D ( 'NONE', #89, #88, #61 ) ;
#5 = PERSON_AND_ORGANIZATION_ROLE ( 'creator' ) ;
#6 = SECURITY_CLASSIFICATION ( '', '', #101 ) ;
#7 = COORDINATED_UNIVERSAL_TIME_OFFSET ( 5, 0, .BEHIND. ) ;
#8 = DIRECTION ( 'NONE',  ( 1.000000000000000000, 0.000000000000000000, 0.000000000000000000 ) ) ;
#9 = VECTOR ( 'NONE', #28, 1000.000000000000000 ) ;
#10 = LOCAL_TIME ( 14, 56, 10.00000000000000000, #165 ) ;
#11 = EDGE_CURVE ( 'NONE', #37, #35, #141, .T. ) ;
#12 = CYLINDRICAL_SURFACE ( 'NONE', #113, 25.39999999999999858 ) ;
#13 = APPROVAL_DATE_TIME ( #75, #125 ) ;
#14 = CC_DESIGN_DATE_AND_TIME_ASSIGNMENT ( #71, #44, ( #6 ) ) ;
#15 = ADVANCED_FACE ( 'NONE', ( #62 ), #124, .T. ) ;
#16 = CARTESIAN_POINT ( 'NONE',  ( -25.39999999999999858, 0.000000000000000000, -0.5000000000000000000 ) ) ;
#17 =( NAMED_UNIT ( * ) PLANE_ANGLE_UNIT ( ) SI_UNIT ( $, .RADIAN. ) );
#18 = AXIS2_PLACEMENT_3D ( 'NONE', #29, #110, #79 ) ;
#19 = APPLICATION_PROTOCOL_DEFINITION ( 'international standard', 'config_control_design', 1994, #20 ) ;
#20 = APPLICATION_CONTEXT ( 'configuration controlled 3d designs of mechanical parts and assemblies' ) ;
#21 = UNCERTAINTY_MEASURE_WITH_UNIT (LENGTH_MEASURE( 1.000000000000000082E-05 ), #46, 'distance_accuracy_value', 'NONE');
#22 = ORIENTED_EDGE ( 'NONE', *, *, #49, .T. ) ;
#23 = CALENDAR_DATE ( 2020, 9, 10 ) ;
#24 = AXIS2_PLACEMENT_3D ( 'NONE', #74, #97, #58 ) ;
#25 = ORIENTED_EDGE ( 'NONE', *, *, #49, .F. ) ;
#26 = DATE_AND_TIME ( #41, #108 ) ;
#27 = ADVANCED_FACE ( 'NONE', ( #56 ), #60, .T. ) ;
#28 = DIRECTION ( 'NONE',  ( -0.000000000000000000, -0.000000000000000000, -1.000000000000000000 ) ) ;
#29 = CARTESIAN_POINT ( 'NONE',  ( 0.000000000000000000, 0.000000000000000000, -0.5000000000000000000 ) ) ;
#30 = ORIENTED_EDGE ( 'NONE', *, *, #45, .T. ) ;
#31 = APPLICATION_CONTEXT ( 'configuration controlled 3d designs of mechanical parts and assemblies' ) ;
#32 = DIRECTION ( 'NONE',  ( 0.000000000000000000, 0.000000000000000000, 1.000000000000000000 ) ) ;
#33 = DIRECTION ( 'NONE',  ( -1.000000000000000000, 0.000000000000000000, 0.000000000000000000 ) ) ;
#34 = AXIS2_PLACEMENT_3D ( 'NONE', #64, #32, #8 ) ;
#35 = VERTEX_POINT ( 'NONE', #16 ) ;
#36 = COORDINATED_UNIVERSAL_TIME_OFFSET ( 5, 0, .BEHIND. ) ;
#37 = VERTEX_POINT ( 'NONE', #109 ) ;
#38 = ORIENTED_EDGE ( 'NONE', *, *, #45, .F. ) ;
#39 = DATE_AND_TIME ( #171, #170 ) ;
#40 = VERTEX_POINT ( 'NONE', #94 ) ;
#41 = CALENDAR_DATE ( 2020, 9, 10 ) ;
#42 = CARTESIAN_POINT ( 'NONE',  ( 25.39999999999999858, 3.110602869834276865E-15, 0.5000000000000000000 ) ) ;
#43 = PRODUCT_DEFINITION_SHAPE ( 'NONE', 'NONE',  #51 ) ;
#44 = DATE_TIME_ROLE ( 'classification_date' ) ;
#45 = EDGE_CURVE ( 'NONE', #35, #111, #161, .T. ) ;
#46 =( LENGTH_UNIT ( ) NAMED_UNIT ( * ) SI_UNIT ( .MILLI., .METRE. ) );
#47 = PERSON_AND_ORGANIZATION_ROLE ( 'classification_officer' ) ;
#48 = EDGE_LOOP ( 'NONE', ( #38, #128 ) ) ;
#49 = EDGE_CURVE ( 'NONE', #40, #111, #95, .T. ) ;
#50 = CIRCLE ( 'NONE', #127, 25.39999999999999858 ) ;
#51 = PRODUCT_DEFINITION ( 'UNKNOWN', '', #133, #67 ) ;
#52 = AXIS2_PLACEMENT_3D ( 'NONE', #151, #81, #175 ) ;
#53 = ORIENTED_EDGE ( 'NONE', *, *, #142, .T. ) ;
#54 = CALENDAR_DATE ( 2020, 9, 10 ) ;
#55 = DIRECTION ( 'NONE',  ( 1.000000000000000000, 0.000000000000000000, 0.000000000000000000 ) ) ;
#56 = FACE_OUTER_BOUND ( 'NONE', #169, .T. ) ;
#57 = CARTESIAN_POINT ( 'NONE',  ( 0.000000000000000000, 0.000000000000000000, 0.5000000000000000000 ) ) ;
#58 = DIRECTION ( 'NONE',  ( -1.000000000000000000, 0.000000000000000000, 0.000000000000000000 ) ) ;
#59 = EDGE_CURVE ( 'NONE', #40, #37, #50, .T. ) ;
#60 = PLANE ( 'NONE',  #52 ) ;
#61 = DIRECTION ( 'NONE',  ( 1.000000000000000000, 0.000000000000000000, 0.000000000000000000 ) ) ;
#62 = FACE_OUTER_BOUND ( 'NONE', #84, .T. ) ;
#63 = APPROVAL_DATE_TIME ( #117, #149 ) ;
#64 = CARTESIAN_POINT ( 'NONE',  ( 0.000000000000000000, 0.000000000000000000, -0.5000000000000000000 ) ) ;
#65 = DIRECTION ( 'NONE',  ( -0.000000000000000000, -0.000000000000000000, -1.000000000000000000 ) ) ;
#66 = CC_DESIGN_APPROVAL ( #125, ( #51 ) ) ;
#67 = DESIGN_CONTEXT ( 'detailed design', #31, 'design' ) ;
#68 =( GEOMETRIC_REPRESENTATION_CONTEXT ( 3 ) GLOBAL_UNCERTAINTY_ASSIGNED_CONTEXT ( ( #21 ) ) GLOBAL_UNIT_ASSIGNED_CONTEXT ( ( #46, #17, #98 ) ) REPRESENTATION_CONTEXT ( 'NONE', 'WORKASPACE' ) );
#69 = PERSON_AND_ORGANIZATION ( #107, #92 ) ;
#70 = CIRCLE ( 'NONE', #34, 25.39999999999999858 ) ;
#71 = DATE_AND_TIME ( #106, #174 ) ;
#72 = PRODUCT ( '10642-E0W', '10642-E0W', '', ( #115 ) ) ;
#73 = CC_DESIGN_PERSON_AND_ORGANIZATION_ASSIGNMENT ( #105, #82, ( #51 ) ) ;
#74 = CARTESIAN_POINT ( 'NONE',  ( 0.000000000000000000, 0.000000000000000000, 0.5000000000000000000 ) ) ;
#75 = DATE_AND_TIME ( #23, #10 ) ;
#76 = ADVANCED_FACE ( 'NONE', ( #93 ), #2, .F. ) ;
#77 = ADVANCED_FACE ( 'NONE', ( #163 ), #12, .T. ) ;
#78 = APPROVAL_ROLE ( '' ) ;
#79 = DIRECTION ( 'NONE',  ( 1.000000000000000000, 0.000000000000000000, -0.000000000000000000 ) ) ;
#80 = PERSON_AND_ORGANIZATION ( #107, #92 ) ;
#81 = DIRECTION ( 'NONE',  ( 0.000000000000000000, 0.000000000000000000, 1.000000000000000000 ) ) ;
#82 = PERSON_AND_ORGANIZATION_ROLE ( 'creator' ) ;
#83 = DIRECTION ( 'NONE',  ( 1.000000000000000000, 0.000000000000000000, 0.000000000000000000 ) ) ;
#84 = EDGE_LOOP ( 'NONE', ( #164, #22, #118, #168 ) ) ;
#85 = CC_DESIGN_PERSON_AND_ORGANIZATION_ASSIGNMENT ( #104, #47, ( #6 ) ) ;
#86 = AXIS2_PLACEMENT_3D ( 'NONE', #1, #132, #55 ) ;
#87 = DIRECTION ( 'NONE',  ( 1.000000000000000000, 0.000000000000000000, 0.000000000000000000 ) ) ;
#88 = DIRECTION ( 'NONE',  ( 0.000000000000000000, 0.000000000000000000, 1.000000000000000000 ) ) ;
#89 = CARTESIAN_POINT ( 'NONE',  ( 0.000000000000000000, 0.000000000000000000, 0.5000000000000000000 ) ) ;
#90 = APPLICATION_PROTOCOL_DEFINITION ( 'international standard', 'config_control_design', 1994, #31 ) ;
#91 = CC_DESIGN_APPROVAL ( #149, ( #6 ) ) ;
#92 = ORGANIZATION ( 'UNSPECIFIED', 'UNSPECIFIED', '' ) ;
#93 = FACE_OUTER_BOUND ( 'NONE', #48, .T. ) ;
#94 = CARTESIAN_POINT ( 'NONE',  ( 25.39999999999999858, 3.110602869834276865E-15, 0.5000000000000000000 ) ) ;
#95 = LINE ( 'NONE', #42, #9 ) ;
#96 = DIRECTION ( 'NONE',  ( -0.000000000000000000, -0.000000000000000000, -1.000000000000000000 ) ) ;
#97 = DIRECTION ( 'NONE',  ( -0.000000000000000000, -0.000000000000000000, -1.000000000000000000 ) ) ;
#98 =( NAMED_UNIT ( * ) SI_UNIT ( $, .STERADIAN. ) SOLID_ANGLE_UNIT ( ) );
#99 = CARTESIAN_POINT ( 'NONE',  ( 25.39999999999999858, 3.110602869834276865E-15, -0.5000000000000000000 ) ) ;
#100 = AXIS2_PLACEMENT_3D ( 'NONE', #172, #122, #83 ) ;
#101 = SECURITY_CLASSIFICATION_LEVEL ( 'unclassified' ) ;
#102 = CLOSED_SHELL ( 'NONE', ( #15, #77, #27, #76 ) ) ;
#103 = ORIENTED_EDGE ( 'NONE', *, *, #142, .F. ) ;
#104 = PERSON_AND_ORGANIZATION ( #107, #92 ) ;
#105 = PERSON_AND_ORGANIZATION ( #107, #92 ) ;
#106 = CALENDAR_DATE ( 2020, 9, 10 ) ;
#107 = PERSON ( 'UNSPECIFIED', 'UNSPECIFIED', 'UNSPECIFIED', ('UNSPECIFIED'), ('UNSPECIFIED'), ('UNSPECIFIED') ) ;
#108 = LOCAL_TIME ( 14, 56, 10.00000000000000000, #36 ) ;
#109 = CARTESIAN_POINT ( 'NONE',  ( -25.39999999999999858, 0.000000000000000000, 0.5000000000000000000 ) ) ;
#110 = DIRECTION ( 'NONE',  ( 0.000000000000000000, 0.000000000000000000, 1.000000000000000000 ) ) ;
#111 = VERTEX_POINT ( 'NONE', #99 ) ;
#112 = PERSON_AND_ORGANIZATION ( #107, #92 ) ;
#113 = AXIS2_PLACEMENT_3D ( 'NONE', #137, #65, #33 ) ;
#114 = APPROVAL_STATUS ( 'not_yet_approved' ) ;
#115 = MECHANICAL_CONTEXT ( 'NONE', #20, 'mechanical' ) ;
#116 = DATE_TIME_ROLE ( 'creation_date' ) ;
#117 = DATE_AND_TIME ( #54, #147 ) ;
#118 = ORIENTED_EDGE ( 'NONE', *, *, #129, .T. ) ;
#119 = CIRCLE ( 'NONE', #4, 25.39999999999999858 ) ;
#120 = PERSON_AND_ORGANIZATION ( #107, #92 ) ;
#121 = PERSON_AND_ORGANIZATION_ROLE ( 'design_supplier' ) ;
#122 = DIRECTION ( 'NONE',  ( 0.000000000000000000, 0.000000000000000000, 1.000000000000000000 ) ) ;
#123 = APPROVAL_STATUS ( 'not_yet_approved' ) ;
#124 = CYLINDRICAL_SURFACE ( 'NONE', #24, 25.39999999999999858 ) ;
#125 = APPROVAL ( #123, 'UNSPECIFIED' ) ;
#126 = APPROVAL_PERSON_ORGANIZATION ( #120, #145, #166 ) ;
#127 = AXIS2_PLACEMENT_3D ( 'NONE', #57, #148, #87 ) ;
#128 = ORIENTED_EDGE ( 'NONE', *, *, #129, .F. ) ;
#129 = EDGE_CURVE ( 'NONE', #111, #35, #70, .T. ) ;
#130 = ORIENTED_EDGE ( 'NONE', *, *, #59, .T. ) ;
#131 = PERSON_AND_ORGANIZATION ( #107, #92 ) ;
#132 = DIRECTION ( 'NONE',  ( 0.000000000000000000, 0.000000000000000000, 1.000000000000000000 ) ) ;
#133 = PRODUCT_DEFINITION_FORMATION_WITH_SPECIFIED_SOURCE ( 'ANY', '', #72, .NOT_KNOWN. ) ;
#134 = PERSON_AND_ORGANIZATION ( #107, #92 ) ;
#135 = APPROVAL_STATUS ( 'not_yet_approved' ) ;
#136 = PERSON_AND_ORGANIZATION_ROLE ( 'design_owner' ) ;
#137 = CARTESIAN_POINT ( 'NONE',  ( 0.000000000000000000, 0.000000000000000000, 0.5000000000000000000 ) ) ;
#138 = SHAPE_DEFINITION_REPRESENTATION ( #43, #144 ) ;
#139 = MANIFOLD_SOLID_BREP ( '10642-001-1-solid1', #102 ) ;
#140 = CC_DESIGN_APPROVAL ( #145, ( #133 ) ) ;
#141 = LINE ( 'NONE', #160, #155 ) ;
#142 = EDGE_CURVE ( 'NONE', #37, #40, #119, .T. ) ;
#143 = APPROVAL_PERSON_ORGANIZATION ( #80, #149, #78 ) ;
#144 = ADVANCED_BREP_SHAPE_REPRESENTATION ( '10642-E0W', ( #139, #100 ), #68 ) ;
#145 = APPROVAL ( #114, 'UNSPECIFIED' ) ;
#146 = APPROVAL_DATE_TIME ( #39, #145 ) ;
#147 = LOCAL_TIME ( 14, 56, 10.00000000000000000, #157 ) ;
#148 = DIRECTION ( 'NONE',  ( 0.000000000000000000, 0.000000000000000000, 1.000000000000000000 ) ) ;
#149 = APPROVAL ( #135, 'UNSPECIFIED' ) ;
#150 = EDGE_LOOP ( 'NONE', ( #25, #103, #173, #30 ) ) ;
#151 = CARTESIAN_POINT ( 'NONE',  ( 0.000000000000000000, 0.000000000000000000, 0.5000000000000000000 ) ) ;
#152 = APPROVAL_ROLE ( '' ) ;
#153 = CC_DESIGN_PERSON_AND_ORGANIZATION_ASSIGNMENT ( #69, #136, ( #72 ) ) ;
#154 = APPROVAL_PERSON_ORGANIZATION ( #112, #125, #152 ) ;
#155 = VECTOR ( 'NONE', #96, 1000.000000000000000 ) ;
#156 = CC_DESIGN_PERSON_AND_ORGANIZATION_ASSIGNMENT ( #131, #5, ( #133 ) ) ;
#157 = COORDINATED_UNIVERSAL_TIME_OFFSET ( 5, 0, .BEHIND. ) ;
#158 = CC_DESIGN_SECURITY_CLASSIFICATION ( #6, ( #133 ) ) ;
#159 = CC_DESIGN_DATE_AND_TIME_ASSIGNMENT ( #26, #116, ( #51 ) ) ;
#160 = CARTESIAN_POINT ( 'NONE',  ( -25.39999999999999858, 0.000000000000000000, 0.5000000000000000000 ) ) ;
#161 = CIRCLE ( 'NONE', #86, 25.39999999999999858 ) ;
#162 = CC_DESIGN_PERSON_AND_ORGANIZATION_ASSIGNMENT ( #134, #121, ( #133 ) ) ;
#163 = FACE_OUTER_BOUND ( 'NONE', #150, .T. ) ;
#164 = ORIENTED_EDGE ( 'NONE', *, *, #59, .F. ) ;
#165 = COORDINATED_UNIVERSAL_TIME_OFFSET ( 5, 0, .BEHIND. ) ;
#166 = APPROVAL_ROLE ( '' ) ;
#167 = PRODUCT_RELATED_PRODUCT_CATEGORY ( 'detail', '', ( #72 ) ) ;
#168 = ORIENTED_EDGE ( 'NONE', *, *, #11, .F. ) ;
#169 = EDGE_LOOP ( 'NONE', ( #53, #130 ) ) ;
#170 = LOCAL_TIME ( 14, 56, 10.00000000000000000, #7 ) ;
#171 = CALENDAR_DATE ( 2020, 9, 10 ) ;
#172 = CARTESIAN_POINT ( 'NONE',  ( 0.000000000000000000, 0.000000000000000000, 0.000000000000000000 ) ) ;
#173 = ORIENTED_EDGE ( 'NONE', *, *, #11, .T. ) ;
#174 = LOCAL_TIME ( 14, 56, 10.00000000000000000, #3 ) ;
#175 = DIRECTION ( 'NONE',  ( 1.000000000000000000, 0.000000000000000000, -0.000000000000000000 ) ) ;
ENDSEC;
END-ISO-10303-21;
