ISO-10303-21;
HEADER;
FILE_DESCRIPTION (( 'STEP AP203' ),
    '1' );
FILE_NAME ('Web Model 46604_46604.step',
    '2017-04-10T15:58:36',
    ( '' ),
    ( '' ),
    'SwSTEP 2.0',
    'SolidWorks 2016',
    '' );
FILE_SCHEMA (( 'CONFIG_CONTROL_DESIGN' ));
ENDSEC;

DATA;
#1 = LINE ( 'NONE', #137, #66 ) ;
#2 = DIRECTION ( 'NONE',  ( -1.000000000000000000, 0.0000000000000000000, -0.0000000000000000000 ) ) ;
#3 = VECTOR ( 'NONE', #172, 1000.000000000000000 ) ;
#4 = APPROVAL_PERSON_ORGANIZATION ( #214, #118, #186 ) ;
#5 = ORIENTED_EDGE ( 'NONE', *, *, #155, .T. ) ;
#6 = ADVANCED_FACE ( 'NONE', ( #73 ), #229, .F. ) ;
#7 = PERSON_AND_ORGANIZATION ( #107, #40 ) ;
#8 = DIRECTION ( 'NONE',  ( -1.000000000000000000, -0.0000000000000000000, -0.0000000000000000000 ) ) ;
#9 = MANIFOLD_SOLID_BREP ( 'Boss-Extrude1', #115 ) ;
#10 = APPROVAL_STATUS ( 'not_yet_approved' ) ;
#11 = ORIENTED_EDGE ( 'NONE', *, *, #125, .T. ) ;
#12 = ORIENTED_EDGE ( 'NONE', *, *, #155, .F. ) ;
#13 = CARTESIAN_POINT ( 'NONE',  ( -6.250000000000001800, -8.750000000000001800, 0.5000000000000000000 ) ) ;
#14 = ORIENTED_EDGE ( 'NONE', *, *, #144, .T. ) ;
#15 = AXIS2_PLACEMENT_3D ( 'NONE', #83, #63, #209 ) ;
#16 = APPROVAL_PERSON_ORGANIZATION ( #7, #59, #50 ) ;
#17 = ORIENTED_EDGE ( 'NONE', *, *, #53, .T. ) ;
#18 = PERSON_AND_ORGANIZATION ( #107, #40 ) ;
#19 = LINE ( 'NONE', #212, #133 ) ;
#20 = PERSON_AND_ORGANIZATION ( #107, #40 ) ;
#21 = ADVANCED_FACE ( 'NONE', ( #35 ), #127, .T. ) ;
#22 = ORIENTED_EDGE ( 'NONE', *, *, #53, .F. ) ;
#23 = EDGE_LOOP ( 'NONE', ( #5, #184, #226, #57 ) ) ;
#24 = CC_DESIGN_PERSON_AND_ORGANIZATION_ASSIGNMENT ( #67, #86, ( #25 ) ) ;
#25 = PRODUCT ( 'Web Model 46604_46604', 'Web Model 46604_46604', '', ( #71 ) ) ;
#26 = DIRECTION ( 'NONE',  ( 0.0000000000000000000, 1.000000000000000000, 0.0000000000000000000 ) ) ;
#27 = EDGE_CURVE ( 'NONE', #121, #104, #19, .T. ) ;
#28 = DIRECTION ( 'NONE',  ( 1.000000000000000000, 0.0000000000000000000, 0.0000000000000000000 ) ) ;
#29 = DESIGN_CONTEXT ( 'detailed design', #167, 'design' ) ;
#30 = PLANE ( 'NONE',  #130 ) ;
#31 = APPROVAL_ROLE ( '' ) ;
#32 = CALENDAR_DATE ( 2017, 10, 4 ) ;
#33 = ORIENTED_EDGE ( 'NONE', *, *, #74, .F. ) ;
#34 = CARTESIAN_POINT ( 'NONE',  ( -6.250000000000001800, -8.750000000000001800, 0.5000000000000000000 ) ) ;
#35 = FACE_OUTER_BOUND ( 'NONE', #195, .T. ) ;
#36 =( NAMED_UNIT ( * ) PLANE_ANGLE_UNIT ( ) SI_UNIT ( $, .RADIAN. ) );
#37 = CARTESIAN_POINT ( 'NONE',  ( 6.249999999999998200, 8.749999999999998200, 0.5000000000000000000 ) ) ;
#38 = VECTOR ( 'NONE', #230, 1000.000000000000000 ) ;
#39 = PRODUCT_DEFINITION ( 'UNKNOWN', '', #105, #29 ) ;
#40 = ORGANIZATION ( 'UNSPECIFIED', 'UNSPECIFIED', '' ) ;
#41 = APPLICATION_PROTOCOL_DEFINITION ( 'international standard', 'config_control_design', 1994, #81 ) ;
#42 = EDGE_CURVE ( 'NONE', #77, #104, #48, .T. ) ;
#43 = CARTESIAN_POINT ( 'NONE',  ( 6.249999999999998200, -8.750000000000001800, -0.5000000000000000000 ) ) ;
#44 = DIRECTION ( 'NONE',  ( 0.0000000000000000000, 1.000000000000000000, 0.0000000000000000000 ) ) ;
#45 = PERSON_AND_ORGANIZATION ( #107, #40 ) ;
#46 = PLANE ( 'NONE',  #204 ) ;
#47 = VECTOR ( 'NONE', #138, 1000.000000000000000 ) ;
#48 = LINE ( 'NONE', #154, #38 ) ;
#49 = COORDINATED_UNIVERSAL_TIME_OFFSET ( 5, 0, .BEHIND. ) ;
#50 = APPROVAL_ROLE ( '' ) ;
#51 = LINE ( 'NONE', #200, #47 ) ;
#52 = ORIENTED_EDGE ( 'NONE', *, *, #27, .F. ) ;
#53 = EDGE_CURVE ( 'NONE', #116, #77, #51, .T. ) ;
#54 = LINE ( 'NONE', #43, #160 ) ;
#55 = APPLICATION_PROTOCOL_DEFINITION ( 'international standard', 'config_control_design', 1994, #167 ) ;
#56 = DIRECTION ( 'NONE',  ( 0.0000000000000000000, 1.000000000000000000, 0.0000000000000000000 ) ) ;
#57 = ORIENTED_EDGE ( 'NONE', *, *, #132, .T. ) ;
#58 = FACE_OUTER_BOUND ( 'NONE', #111, .T. ) ;
#59 = APPROVAL ( #93, 'UNSPECIFIED' ) ;
#60 = ADVANCED_BREP_SHAPE_REPRESENTATION ( 'Web Model 46604_46604', ( #9, #15 ), #190 ) ;
#61 = VECTOR ( 'NONE', #228, 1000.000000000000000 ) ;
#62 = DATE_TIME_ROLE ( 'classification_date' ) ;
#63 = DIRECTION ( 'NONE',  ( 0.0000000000000000000, 0.0000000000000000000, 1.000000000000000000 ) ) ;
#64 = EDGE_CURVE ( 'NONE', #116, #121, #99, .T. ) ;
#65 = PLANE ( 'NONE',  #174 ) ;
#66 = VECTOR ( 'NONE', #89, 1000.000000000000000 ) ;
#67 = PERSON_AND_ORGANIZATION ( #107, #40 ) ;
#68 = COORDINATED_UNIVERSAL_TIME_OFFSET ( 5, 0, .BEHIND. ) ;
#69 = CC_DESIGN_APPROVAL ( #59, ( #39 ) ) ;
#70 = CARTESIAN_POINT ( 'NONE',  ( 6.249999999999998200, -8.750000000000001800, -0.5000000000000000000 ) ) ;
#71 = MECHANICAL_CONTEXT ( 'NONE', #81, 'mechanical' ) ;
#72 = COORDINATED_UNIVERSAL_TIME_OFFSET ( 5, 0, .BEHIND. ) ;
#73 = FACE_OUTER_BOUND ( 'NONE', #23, .T. ) ;
#74 = EDGE_CURVE ( 'NONE', #104, #231, #1, .T. ) ;
#75 = CALENDAR_DATE ( 2017, 10, 4 ) ;
#76 = FACE_OUTER_BOUND ( 'NONE', #95, .T. ) ;
#77 = VERTEX_POINT ( 'NONE', #13 ) ;
#78 = CARTESIAN_POINT ( 'NONE',  ( 6.249999999999998200, -8.750000000000001800, 0.5000000000000000000 ) ) ;
#79 = DATE_AND_TIME ( #191, #145 ) ;
#80 = CC_DESIGN_PERSON_AND_ORGANIZATION_ASSIGNMENT ( #45, #220, ( #39 ) ) ;
#81 = APPLICATION_CONTEXT ( 'configuration controlled 3d designs of mechanical parts and assemblies' ) ;
#82 = CALENDAR_DATE ( 2017, 10, 4 ) ;
#83 = CARTESIAN_POINT ( 'NONE',  ( 0.0000000000000000000, 0.0000000000000000000, 0.0000000000000000000 ) ) ;
#84 = AXIS2_PLACEMENT_3D ( 'NONE', #216, #158, #194 ) ;
#85 = DIRECTION ( 'NONE',  ( -1.000000000000000000, 0.0000000000000000000, 0.0000000000000000000 ) ) ;
#86 = PERSON_AND_ORGANIZATION_ROLE ( 'design_owner' ) ;
#87 = LINE ( 'NONE', #37, #61 ) ;
#88 = SHAPE_DEFINITION_REPRESENTATION ( #205, #60 ) ;
#89 = DIRECTION ( 'NONE',  ( 1.000000000000000000, 0.0000000000000000000, 0.0000000000000000000 ) ) ;
#90 = EDGE_CURVE ( 'NONE', #77, #206, #225, .T. ) ;
#91 = PERSON_AND_ORGANIZATION ( #107, #40 ) ;
#92 = FACE_OUTER_BOUND ( 'NONE', #123, .T. ) ;
#93 = APPROVAL_STATUS ( 'not_yet_approved' ) ;
#94 = DIRECTION ( 'NONE',  ( 0.0000000000000000000, 0.0000000000000000000, -1.000000000000000000 ) ) ;
#95 = EDGE_LOOP ( 'NONE', ( #11, #148, #197, #131 ) ) ;
#96 = CC_DESIGN_DATE_AND_TIME_ASSIGNMENT ( #223, #235, ( #39 ) ) ;
#97 = ORIENTED_EDGE ( 'NONE', *, *, #64, .T. ) ;
#98 = EDGE_LOOP ( 'NONE', ( #135, #219, #22, #97 ) ) ;
#99 = LINE ( 'NONE', #215, #3 ) ;
#100 = EDGE_CURVE ( 'NONE', #206, #231, #234, .T. ) ;
#101 = CARTESIAN_POINT ( 'NONE',  ( 6.249999999999998200, -8.750000000000001800, 0.5000000000000000000 ) ) ;
#102 = LOCAL_TIME ( 11, 58, 36.00000000000000000, #188 ) ;
#103 = ORIENTED_EDGE ( 'NONE', *, *, #100, .F. ) ;
#104 = VERTEX_POINT ( 'NONE', #157 ) ;
#105 = PRODUCT_DEFINITION_FORMATION_WITH_SPECIFIED_SOURCE ( 'ANY', '', #25, .NOT_KNOWN. ) ;
#106 = ADVANCED_FACE ( 'NONE', ( #58 ), #30, .F. ) ;
#107 = PERSON ( 'UNSPECIFIED', 'UNSPECIFIED', 'UNSPECIFIED', ('UNSPECIFIED'), ('UNSPECIFIED'), ('UNSPECIFIED') ) ;
#108 = SECURITY_CLASSIFICATION_LEVEL ( 'unclassified' ) ;
#109 = AXIS2_PLACEMENT_3D ( 'NONE', #112, #177, #181 ) ;
#110 =( LENGTH_UNIT ( ) NAMED_UNIT ( * ) SI_UNIT ( .MILLI., .METRE. ) );
#111 = EDGE_LOOP ( 'NONE', ( #159, #103, #180, #120 ) ) ;
#112 = CARTESIAN_POINT ( 'NONE',  ( 0.0000000000000000000, 0.0000000000000000000, -0.5000000000000000000 ) ) ;
#113 = VERTEX_POINT ( 'NONE', #210 ) ;
#114 = EDGE_CURVE ( 'NONE', #222, #116, #129, .T. ) ;
#115 = CLOSED_SHELL ( 'NONE', ( #153, #6, #169, #106, #124, #21 ) ) ;
#116 = VERTEX_POINT ( 'NONE', #171 ) ;
#117 = CARTESIAN_POINT ( 'NONE',  ( -6.250000000000001800, -8.750000000000001800, 0.5000000000000000000 ) ) ;
#118 = APPROVAL ( #213, 'UNSPECIFIED' ) ;
#119 = ORIENTED_EDGE ( 'NONE', *, *, #114, .T. ) ;
#120 = ORIENTED_EDGE ( 'NONE', *, *, #42, .T. ) ;
#121 = VERTEX_POINT ( 'NONE', #146 ) ;
#122 = COORDINATED_UNIVERSAL_TIME_OFFSET ( 5, 0, .BEHIND. ) ;
#123 = EDGE_LOOP ( 'NONE', ( #14, #119, #17, #221 ) ) ;
#124 = ADVANCED_FACE ( 'NONE', ( #92 ), #193, .F. ) ;
#125 = EDGE_CURVE ( 'NONE', #231, #113, #54, .T. ) ;
#126 =( NAMED_UNIT ( * ) SI_UNIT ( $, .STERADIAN. ) SOLID_ANGLE_UNIT ( ) );
#127 = PLANE ( 'NONE',  #109 ) ;
#128 = CC_DESIGN_APPROVAL ( #118, ( #105 ) ) ;
#129 = LINE ( 'NONE', #140, #170 ) ;
#130 = AXIS2_PLACEMENT_3D ( 'NONE', #207, #26, #199 ) ;
#131 = ORIENTED_EDGE ( 'NONE', *, *, #100, .T. ) ;
#132 = EDGE_CURVE ( 'NONE', #222, #113, #87, .T. ) ;
#133 = VECTOR ( 'NONE', #173, 1000.000000000000000 ) ;
#134 = PERSON_AND_ORGANIZATION_ROLE ( 'creator' ) ;
#135 = ORIENTED_EDGE ( 'NONE', *, *, #27, .T. ) ;
#136 = CC_DESIGN_PERSON_AND_ORGANIZATION_ASSIGNMENT ( #91, #134, ( #105 ) ) ;
#137 = CARTESIAN_POINT ( 'NONE',  ( -6.250000000000001800, -8.750000000000001800, -0.5000000000000000000 ) ) ;
#138 = DIRECTION ( 'NONE',  ( -0.0000000000000000000, -1.000000000000000000, -0.0000000000000000000 ) ) ;
#139 = CC_DESIGN_PERSON_AND_ORGANIZATION_ASSIGNMENT ( #162, #164, ( #161 ) ) ;
#140 = CARTESIAN_POINT ( 'NONE',  ( -6.250000000000001800, 8.749999999999998200, 0.5000000000000000000 ) ) ;
#141 = CARTESIAN_POINT ( 'NONE',  ( -6.250000000000001800, 8.749999999999998200, -0.5000000000000000000 ) ) ;
#142 = DIRECTION ( 'NONE',  ( 0.0000000000000000000, 0.0000000000000000000, 1.000000000000000000 ) ) ;
#143 = CARTESIAN_POINT ( 'NONE',  ( 6.249999999999998200, 8.749999999999998200, 0.5000000000000000000 ) ) ;
#144 = EDGE_CURVE ( 'NONE', #206, #222, #211, .T. ) ;
#145 = LOCAL_TIME ( 11, 58, 36.00000000000000000, #68 ) ;
#146 = CARTESIAN_POINT ( 'NONE',  ( -6.250000000000001800, 8.749999999999998200, -0.5000000000000000000 ) ) ;
#147 = CC_DESIGN_PERSON_AND_ORGANIZATION_ASSIGNMENT ( #20, #151, ( #105 ) ) ;
#148 = ORIENTED_EDGE ( 'NONE', *, *, #132, .F. ) ;
#149 = AXIS2_PLACEMENT_3D ( 'NONE', #237, #94, #2 ) ;
#150 = CC_DESIGN_DATE_AND_TIME_ASSIGNMENT ( #185, #62, ( #161 ) ) ;
#151 = PERSON_AND_ORGANIZATION_ROLE ( 'design_supplier' ) ;
#152 = FACE_OUTER_BOUND ( 'NONE', #98, .T. ) ;
#153 = ADVANCED_FACE ( 'NONE', ( #76 ), #65, .F. ) ;
#154 = CARTESIAN_POINT ( 'NONE',  ( -6.250000000000001800, -8.750000000000001800, 0.5000000000000000000 ) ) ;
#155 = EDGE_CURVE ( 'NONE', #113, #121, #227, .T. ) ;
#156 = APPROVAL_DATE_TIME ( #79, #59 ) ;
#157 = CARTESIAN_POINT ( 'NONE',  ( -6.250000000000001800, -8.750000000000001800, -0.5000000000000000000 ) ) ;
#158 = DIRECTION ( 'NONE',  ( 0.0000000000000000000, -1.000000000000000000, 0.0000000000000000000 ) ) ;
#159 = ORIENTED_EDGE ( 'NONE', *, *, #74, .T. ) ;
#160 = VECTOR ( 'NONE', #56, 1000.000000000000000 ) ;
#161 = SECURITY_CLASSIFICATION ( '', '', #108 ) ;
#162 = PERSON_AND_ORGANIZATION ( #107, #40 ) ;
#163 = APPROVAL ( #10, 'UNSPECIFIED' ) ;
#164 = PERSON_AND_ORGANIZATION_ROLE ( 'classification_officer' ) ;
#165 = APPROVAL_DATE_TIME ( #196, #163 ) ;
#166 = CARTESIAN_POINT ( 'NONE',  ( 6.249999999999998200, -8.750000000000001800, 0.5000000000000000000 ) ) ;
#167 = APPLICATION_CONTEXT ( 'configuration controlled 3d designs of mechanical parts and assemblies' ) ;
#168 = VECTOR ( 'NONE', #28, 1000.000000000000000 ) ;
#169 = ADVANCED_FACE ( 'NONE', ( #152 ), #46, .F. ) ;
#170 = VECTOR ( 'NONE', #192, 1000.000000000000000 ) ;
#171 = CARTESIAN_POINT ( 'NONE',  ( -6.250000000000001800, 8.749999999999998200, 0.5000000000000000000 ) ) ;
#172 = DIRECTION ( 'NONE',  ( -0.0000000000000000000, -0.0000000000000000000, -1.000000000000000000 ) ) ;
#173 = DIRECTION ( 'NONE',  ( -0.0000000000000000000, -1.000000000000000000, -0.0000000000000000000 ) ) ;
#174 = AXIS2_PLACEMENT_3D ( 'NONE', #166, #85, #142 ) ;
#175 = CC_DESIGN_APPROVAL ( #163, ( #161 ) ) ;
#176 = VECTOR ( 'NONE', #8, 1000.000000000000000 ) ;
#177 = DIRECTION ( 'NONE',  ( 0.0000000000000000000, 0.0000000000000000000, -1.000000000000000000 ) ) ;
#178 = LOCAL_TIME ( 11, 58, 36.00000000000000000, #122 ) ;
#179 = UNCERTAINTY_MEASURE_WITH_UNIT (LENGTH_MEASURE( 1.000000000000000100E-005 ), #110, 'distance_accuracy_value', 'NONE');
#180 = ORIENTED_EDGE ( 'NONE', *, *, #90, .F. ) ;
#181 = DIRECTION ( 'NONE',  ( -1.000000000000000000, 0.0000000000000000000, -0.0000000000000000000 ) ) ;
#182 = CARTESIAN_POINT ( 'NONE',  ( 6.249999999999998200, -8.750000000000001800, 0.5000000000000000000 ) ) ;
#183 = DIRECTION ( 'NONE',  ( 0.0000000000000000000, 0.0000000000000000000, -1.000000000000000000 ) ) ;
#184 = ORIENTED_EDGE ( 'NONE', *, *, #64, .F. ) ;
#185 = DATE_AND_TIME ( #202, #208 ) ;
#186 = APPROVAL_ROLE ( '' ) ;
#187 = APPROVAL_DATE_TIME ( #236, #118 ) ;
#188 = COORDINATED_UNIVERSAL_TIME_OFFSET ( 5, 0, .BEHIND. ) ;
#189 = CC_DESIGN_SECURITY_CLASSIFICATION ( #161, ( #105 ) ) ;
#190 =( GEOMETRIC_REPRESENTATION_CONTEXT ( 3 ) GLOBAL_UNCERTAINTY_ASSIGNED_CONTEXT ( ( #179 ) ) GLOBAL_UNIT_ASSIGNED_CONTEXT ( ( #110, #36, #126 ) ) REPRESENTATION_CONTEXT ( 'NONE', 'WORKASPACE' ) );
#191 = CALENDAR_DATE ( 2017, 10, 4 ) ;
#192 = DIRECTION ( 'NONE',  ( -1.000000000000000000, -0.0000000000000000000, -0.0000000000000000000 ) ) ;
#193 = PLANE ( 'NONE',  #149 ) ;
#194 = DIRECTION ( 'NONE',  ( 0.0000000000000000000, -0.0000000000000000000, -1.000000000000000000 ) ) ;
#195 = EDGE_LOOP ( 'NONE', ( #217, #33, #52, #12 ) ) ;
#196 = DATE_AND_TIME ( #32, #178 ) ;
#197 = ORIENTED_EDGE ( 'NONE', *, *, #144, .F. ) ;
#198 = APPROVAL_PERSON_ORGANIZATION ( #18, #163, #31 ) ;
#199 = DIRECTION ( 'NONE',  ( 0.0000000000000000000, -0.0000000000000000000, 1.000000000000000000 ) ) ;
#200 = CARTESIAN_POINT ( 'NONE',  ( -6.250000000000001800, -8.750000000000001800, 0.5000000000000000000 ) ) ;
#201 = VECTOR ( 'NONE', #232, 1000.000000000000000 ) ;
#202 = CALENDAR_DATE ( 2017, 10, 4 ) ;
#203 = PRODUCT_RELATED_PRODUCT_CATEGORY ( 'detail', '', ( #25 ) ) ;
#204 = AXIS2_PLACEMENT_3D ( 'NONE', #117, #224, #183 ) ;
#205 = PRODUCT_DEFINITION_SHAPE ( 'NONE', 'NONE',  #39 ) ;
#206 = VERTEX_POINT ( 'NONE', #101 ) ;
#207 = CARTESIAN_POINT ( 'NONE',  ( -6.250000000000001800, -8.750000000000001800, 0.5000000000000000000 ) ) ;
#208 = LOCAL_TIME ( 11, 58, 36.00000000000000000, #49 ) ;
#209 = DIRECTION ( 'NONE',  ( 1.000000000000000000, 0.0000000000000000000, 0.0000000000000000000 ) ) ;
#210 = CARTESIAN_POINT ( 'NONE',  ( 6.249999999999998200, 8.749999999999998200, -0.5000000000000000000 ) ) ;
#211 = LINE ( 'NONE', #78, #218 ) ;
#212 = CARTESIAN_POINT ( 'NONE',  ( -6.250000000000001800, -8.750000000000001800, -0.5000000000000000000 ) ) ;
#213 = APPROVAL_STATUS ( 'not_yet_approved' ) ;
#214 = PERSON_AND_ORGANIZATION ( #107, #40 ) ;
#215 = CARTESIAN_POINT ( 'NONE',  ( -6.250000000000001800, 8.749999999999998200, 0.5000000000000000000 ) ) ;
#216 = CARTESIAN_POINT ( 'NONE',  ( -6.250000000000001800, 8.749999999999998200, 0.5000000000000000000 ) ) ;
#217 = ORIENTED_EDGE ( 'NONE', *, *, #125, .F. ) ;
#218 = VECTOR ( 'NONE', #44, 1000.000000000000000 ) ;
#219 = ORIENTED_EDGE ( 'NONE', *, *, #42, .F. ) ;
#220 = PERSON_AND_ORGANIZATION_ROLE ( 'creator' ) ;
#221 = ORIENTED_EDGE ( 'NONE', *, *, #90, .T. ) ;
#222 = VERTEX_POINT ( 'NONE', #143 ) ;
#223 = DATE_AND_TIME ( #82, #102 ) ;
#224 = DIRECTION ( 'NONE',  ( 1.000000000000000000, 0.0000000000000000000, 0.0000000000000000000 ) ) ;
#225 = LINE ( 'NONE', #34, #168 ) ;
#226 = ORIENTED_EDGE ( 'NONE', *, *, #114, .F. ) ;
#227 = LINE ( 'NONE', #141, #176 ) ;
#228 = DIRECTION ( 'NONE',  ( -0.0000000000000000000, -0.0000000000000000000, -1.000000000000000000 ) ) ;
#229 = PLANE ( 'NONE',  #84 ) ;
#230 = DIRECTION ( 'NONE',  ( -0.0000000000000000000, -0.0000000000000000000, -1.000000000000000000 ) ) ;
#231 = VERTEX_POINT ( 'NONE', #70 ) ;
#232 = DIRECTION ( 'NONE',  ( -0.0000000000000000000, -0.0000000000000000000, -1.000000000000000000 ) ) ;
#233 = LOCAL_TIME ( 11, 58, 36.00000000000000000, #72 ) ;
#234 = LINE ( 'NONE', #182, #201 ) ;
#235 = DATE_TIME_ROLE ( 'creation_date' ) ;
#236 = DATE_AND_TIME ( #75, #233 ) ;
#237 = CARTESIAN_POINT ( 'NONE',  ( 0.0000000000000000000, 0.0000000000000000000, 0.5000000000000000000 ) ) ;
ENDSEC;
END-ISO-10303-21;
