ISO-10303-21;
HEADER;
FILE_DESCRIPTION (( 'STEP AP203' ),
    '1' );
FILE_NAME ('Web Model 47021.STEP',
    '2017-01-31T15:20:06',
    ( '' ),
    ( '' ),
    'SwSTEP 2.0',
    'SolidWorks 2016',
    '' );
FILE_SCHEMA (( 'CONFIG_CONTROL_DESIGN' ));
ENDSEC;

DATA;
#1 = VERTEX_POINT ( 'NONE', #39 ) ;
#2 = LINE ( 'NONE', #90, #123 ) ;
#3 = PERSON_AND_ORGANIZATION ( #153, #154 ) ;
#4 = VERTEX_POINT ( 'NONE', #41 ) ;
#5 = VECTOR ( 'NONE', #42, 1000.000000000000000 ) ;
#6 = APPROVAL_ROLE ( '' ) ;
#7 = PERSON_AND_ORGANIZATION_ROLE ( 'creator' ) ;
#8 = LOCAL_TIME ( 10, 20, 6.000000000000000000, #16 ) ;
#9 = DIRECTION ( 'NONE',  ( 1.000000000000000000, 0.0000000000000000000, 0.0000000000000000000 ) ) ;
#10 = APPROVAL_STATUS ( 'not_yet_approved' ) ;
#11 = LOCAL_TIME ( 10, 20, 6.000000000000000000, #58 ) ;
#12 = DATE_AND_TIME ( #60, #11 ) ;
#13 = DIRECTION ( 'NONE',  ( 1.000000000000000000, 0.0000000000000000000, 0.0000000000000000000 ) ) ;
#14 = CARTESIAN_POINT ( 'NONE',  ( -6.249999999999998200, 0.0000000000000000000, 3.000000000000000000 ) ) ;
#15 = AXIS2_PLACEMENT_3D ( 'NONE', #74, #112, #13 ) ;
#16 = COORDINATED_UNIVERSAL_TIME_OFFSET ( 5, 0, .BEHIND. ) ;
#17 = FACE_OUTER_BOUND ( 'NONE', #38, .T. ) ;
#18 = DIRECTION ( 'NONE',  ( 0.0000000000000000000, 0.0000000000000000000, 1.000000000000000000 ) ) ;
#19 = APPROVAL_PERSON_ORGANIZATION ( #111, #102, #106 ) ;
#20 =( LENGTH_UNIT ( ) NAMED_UNIT ( * ) SI_UNIT ( .MILLI., .METRE. ) );
#21 = DATE_TIME_ROLE ( 'creation_date' ) ;
#22 = APPROVAL_STATUS ( 'not_yet_approved' ) ;
#23 = ORIENTED_EDGE ( 'NONE', *, *, #135, .T. ) ;
#24 = CC_DESIGN_PERSON_AND_ORGANIZATION_ASSIGNMENT ( #73, #7, ( #92 ) ) ;
#25 = LOCAL_TIME ( 10, 20, 6.000000000000000000, #50 ) ;
#26 = DIRECTION ( 'NONE',  ( 0.0000000000000000000, 0.0000000000000000000, 1.000000000000000000 ) ) ;
#27 = PERSON_AND_ORGANIZATION ( #153, #154 ) ;
#28 = DIRECTION ( 'NONE',  ( 1.000000000000000000, 0.0000000000000000000, 0.0000000000000000000 ) ) ;
#29 = ADVANCED_FACE ( 'NONE', ( #17 ), #113, .T. ) ;
#30 = FACE_OUTER_BOUND ( 'NONE', #33, .T. ) ;
#31 = PRODUCT ( 'Web Model 47021', 'Web Model 47021', '', ( #77 ) ) ;
#32 = ORIENTED_EDGE ( 'NONE', *, *, #88, .T. ) ;
#33 = EDGE_LOOP ( 'NONE', ( #173, #76, #32, #83 ) ) ;
#34 = EDGE_LOOP ( 'NONE', ( #171, #129 ) ) ;
#35 = SECURITY_CLASSIFICATION_LEVEL ( 'unclassified' ) ;
#36 = PERSON_AND_ORGANIZATION_ROLE ( 'design_supplier' ) ;
#37 = VERTEX_POINT ( 'NONE', #95 ) ;
#38 = EDGE_LOOP ( 'NONE', ( #68, #96 ) ) ;
#39 = CARTESIAN_POINT ( 'NONE',  ( -6.249999999999998200, 0.0000000000000000000, 0.0000000000000000000 ) ) ;
#40 = AXIS2_PLACEMENT_3D ( 'NONE', #57, #80, #164 ) ;
#41 = CARTESIAN_POINT ( 'NONE',  ( 6.249999999999998200, 7.654042494670955600E-016, 0.0000000000000000000 ) ) ;
#42 = DIRECTION ( 'NONE',  ( -0.0000000000000000000, -0.0000000000000000000, -1.000000000000000000 ) ) ;
#43 = EDGE_LOOP ( 'NONE', ( #105, #108, #23, #117 ) ) ;
#44 = LOCAL_TIME ( 10, 20, 6.000000000000000000, #120 ) ;
#45 = EDGE_CURVE ( 'NONE', #144, #37, #87, .T. ) ;
#46 = CC_DESIGN_SECURITY_CLASSIFICATION ( #128, ( #92 ) ) ;
#47 = CC_DESIGN_APPROVAL ( #134, ( #161 ) ) ;
#48 = APPROVAL_ROLE ( '' ) ;
#49 = APPROVAL_DATE_TIME ( #146, #134 ) ;
#50 = COORDINATED_UNIVERSAL_TIME_OFFSET ( 5, 0, .BEHIND. ) ;
#51 = CARTESIAN_POINT ( 'NONE',  ( 0.0000000000000000000, 0.0000000000000000000, 0.0000000000000000000 ) ) ;
#52 = DIRECTION ( 'NONE',  ( -0.0000000000000000000, -0.0000000000000000000, -1.000000000000000000 ) ) ;
#53 = FACE_OUTER_BOUND ( 'NONE', #34, .T. ) ;
#54 = AXIS2_PLACEMENT_3D ( 'NONE', #51, #158, #132 ) ;
#55 = APPROVAL_PERSON_ORGANIZATION ( #162, #166, #48 ) ;
#56 = DIRECTION ( 'NONE',  ( 1.000000000000000000, 0.0000000000000000000, -0.0000000000000000000 ) ) ;
#57 = CARTESIAN_POINT ( 'NONE',  ( 0.0000000000000000000, 0.0000000000000000000, 0.0000000000000000000 ) ) ;
#58 = COORDINATED_UNIVERSAL_TIME_OFFSET ( 5, 0, .BEHIND. ) ;
#59 = CC_DESIGN_PERSON_AND_ORGANIZATION_ASSIGNMENT ( #3, #156, ( #161 ) ) ;
#60 = CALENDAR_DATE ( 2017, 31, 1 ) ;
#61 = APPROVAL_DATE_TIME ( #94, #166 ) ;
#62 = AXIS2_PLACEMENT_3D ( 'NONE', #147, #26, #28 ) ;
#63 = AXIS2_PLACEMENT_3D ( 'NONE', #143, #89, #9 ) ;
#64 = EDGE_CURVE ( 'NONE', #1, #4, #155, .T. ) ;
#65 = CARTESIAN_POINT ( 'NONE',  ( 0.0000000000000000000, 0.0000000000000000000, 0.0000000000000000000 ) ) ;
#66 = PERSON_AND_ORGANIZATION ( #153, #154 ) ;
#67 = APPLICATION_PROTOCOL_DEFINITION ( 'international standard', 'config_control_design', 1994, #172 ) ;
#68 = ORIENTED_EDGE ( 'NONE', *, *, #45, .T. ) ;
#69 = PRODUCT_RELATED_PRODUCT_CATEGORY ( 'detail', '', ( #31 ) ) ;
#70 = CC_DESIGN_DATE_AND_TIME_ASSIGNMENT ( #12, #21, ( #161 ) ) ;
#71 = CARTESIAN_POINT ( 'NONE',  ( 6.249999999999998200, 7.654042494670955600E-016, 3.000000000000000000 ) ) ;
#72 =( GEOMETRIC_REPRESENTATION_CONTEXT ( 3 ) GLOBAL_UNCERTAINTY_ASSIGNED_CONTEXT ( ( #139 ) ) GLOBAL_UNIT_ASSIGNED_CONTEXT ( ( #20, #121, #103 ) ) REPRESENTATION_CONTEXT ( 'NONE', 'WORKASPACE' ) );
#73 = PERSON_AND_ORGANIZATION ( #153, #154 ) ;
#74 = CARTESIAN_POINT ( 'NONE',  ( 0.0000000000000000000, 0.0000000000000000000, 3.000000000000000000 ) ) ;
#75 = CC_DESIGN_APPROVAL ( #102, ( #92 ) ) ;
#76 = ORIENTED_EDGE ( 'NONE', *, *, #110, .T. ) ;
#77 = MECHANICAL_CONTEXT ( 'NONE', #122, 'mechanical' ) ;
#78 = PERSON_AND_ORGANIZATION_ROLE ( 'design_owner' ) ;
#79 = DIRECTION ( 'NONE',  ( -1.000000000000000000, 0.0000000000000000000, 0.0000000000000000000 ) ) ;
#80 = DIRECTION ( 'NONE',  ( 0.0000000000000000000, 0.0000000000000000000, 1.000000000000000000 ) ) ;
#81 = DIRECTION ( 'NONE',  ( 0.0000000000000000000, 0.0000000000000000000, 1.000000000000000000 ) ) ;
#82 = PERSON_AND_ORGANIZATION ( #153, #154 ) ;
#83 = ORIENTED_EDGE ( 'NONE', *, *, #135, .F. ) ;
#84 = ADVANCED_BREP_SHAPE_REPRESENTATION ( 'Web Model 47021', ( #160, #140 ), #72 ) ;
#85 = CALENDAR_DATE ( 2017, 31, 1 ) ;
#86 = LOCAL_TIME ( 10, 20, 6.000000000000000000, #124 ) ;
#87 = CIRCLE ( 'NONE', #15, 6.249999999999998200 ) ;
#88 = EDGE_CURVE ( 'NONE', #4, #1, #138, .T. ) ;
#89 = DIRECTION ( 'NONE',  ( 0.0000000000000000000, 0.0000000000000000000, 1.000000000000000000 ) ) ;
#90 = CARTESIAN_POINT ( 'NONE',  ( -6.249999999999998200, 0.0000000000000000000, 3.000000000000000000 ) ) ;
#91 = CLOSED_SHELL ( 'NONE', ( #115, #97, #29, #150 ) ) ;
#92 = PRODUCT_DEFINITION_FORMATION_WITH_SPECIFIED_SOURCE ( 'ANY', '', #31, .NOT_KNOWN. ) ;
#93 = APPROVAL_PERSON_ORGANIZATION ( #82, #134, #6 ) ;
#94 = DATE_AND_TIME ( #131, #25 ) ;
#95 = CARTESIAN_POINT ( 'NONE',  ( 6.249999999999998200, 7.654042494670955600E-016, 3.000000000000000000 ) ) ;
#96 = ORIENTED_EDGE ( 'NONE', *, *, #126, .T. ) ;
#97 = ADVANCED_FACE ( 'NONE', ( #159 ), #114, .T. ) ;
#98 = CYLINDRICAL_SURFACE ( 'NONE', #145, 6.249999999999998200 ) ;
#99 = CC_DESIGN_PERSON_AND_ORGANIZATION_ASSIGNMENT ( #66, #101, ( #128 ) ) ;
#100 = AXIS2_PLACEMENT_3D ( 'NONE', #136, #148, #165 ) ;
#101 = PERSON_AND_ORGANIZATION_ROLE ( 'classification_officer' ) ;
#102 = APPROVAL ( #157, 'UNSPECIFIED' ) ;
#103 =( NAMED_UNIT ( * ) SI_UNIT ( $, .STERADIAN. ) SOLID_ANGLE_UNIT ( ) );
#104 = APPROVAL_DATE_TIME ( #170, #102 ) ;
#105 = ORIENTED_EDGE ( 'NONE', *, *, #110, .F. ) ;
#106 = APPROVAL_ROLE ( '' ) ;
#107 = CC_DESIGN_PERSON_AND_ORGANIZATION_ASSIGNMENT ( #27, #36, ( #92 ) ) ;
#108 = ORIENTED_EDGE ( 'NONE', *, *, #45, .F. ) ;
#109 = CIRCLE ( 'NONE', #63, 6.249999999999998200 ) ;
#110 = EDGE_CURVE ( 'NONE', #37, #4, #151, .T. ) ;
#111 = PERSON_AND_ORGANIZATION ( #153, #154 ) ;
#112 = DIRECTION ( 'NONE',  ( 0.0000000000000000000, 0.0000000000000000000, 1.000000000000000000 ) ) ;
#113 = PLANE ( 'NONE',  #137 ) ;
#114 = CYLINDRICAL_SURFACE ( 'NONE', #100, 6.249999999999998200 ) ;
#115 = ADVANCED_FACE ( 'NONE', ( #30 ), #98, .T. ) ;
#116 = PRODUCT_DEFINITION_SHAPE ( 'NONE', 'NONE',  #161 ) ;
#117 = ORIENTED_EDGE ( 'NONE', *, *, #64, .T. ) ;
#118 = DIRECTION ( 'NONE',  ( 1.000000000000000000, 0.0000000000000000000, 0.0000000000000000000 ) ) ;
#119 = PLANE ( 'NONE',  #54 ) ;
#120 = COORDINATED_UNIVERSAL_TIME_OFFSET ( 5, 0, .BEHIND. ) ;
#121 =( NAMED_UNIT ( * ) PLANE_ANGLE_UNIT ( ) SI_UNIT ( $, .RADIAN. ) );
#122 = APPLICATION_CONTEXT ( 'configuration controlled 3d designs of mechanical parts and assemblies' ) ;
#123 = VECTOR ( 'NONE', #52, 1000.000000000000000 ) ;
#124 = COORDINATED_UNIVERSAL_TIME_OFFSET ( 5, 0, .BEHIND. ) ;
#125 = DIRECTION ( 'NONE',  ( -0.0000000000000000000, -0.0000000000000000000, -1.000000000000000000 ) ) ;
#126 = EDGE_CURVE ( 'NONE', #37, #144, #109, .T. ) ;
#127 = SHAPE_DEFINITION_REPRESENTATION ( #116, #84 ) ;
#128 = SECURITY_CLASSIFICATION ( '', '', #35 ) ;
#129 = ORIENTED_EDGE ( 'NONE', *, *, #88, .F. ) ;
#130 = APPLICATION_PROTOCOL_DEFINITION ( 'international standard', 'config_control_design', 1994, #122 ) ;
#131 = CALENDAR_DATE ( 2017, 31, 1 ) ;
#132 = DIRECTION ( 'NONE',  ( 1.000000000000000000, 0.0000000000000000000, -0.0000000000000000000 ) ) ;
#133 = CC_DESIGN_DATE_AND_TIME_ASSIGNMENT ( #152, #142, ( #128 ) ) ;
#134 = APPROVAL ( #10, 'UNSPECIFIED' ) ;
#135 = EDGE_CURVE ( 'NONE', #144, #1, #2, .T. ) ;
#136 = CARTESIAN_POINT ( 'NONE',  ( 0.0000000000000000000, 0.0000000000000000000, 3.000000000000000000 ) ) ;
#137 = AXIS2_PLACEMENT_3D ( 'NONE', #174, #81, #56 ) ;
#138 = CIRCLE ( 'NONE', #62, 6.249999999999998200 ) ;
#139 = UNCERTAINTY_MEASURE_WITH_UNIT (LENGTH_MEASURE( 1.000000000000000100E-005 ), #20, 'distance_accuracy_value', 'NONE');
#140 = AXIS2_PLACEMENT_3D ( 'NONE', #65, #18, #118 ) ;
#141 = CALENDAR_DATE ( 2017, 31, 1 ) ;
#142 = DATE_TIME_ROLE ( 'classification_date' ) ;
#143 = CARTESIAN_POINT ( 'NONE',  ( 0.0000000000000000000, 0.0000000000000000000, 3.000000000000000000 ) ) ;
#144 = VERTEX_POINT ( 'NONE', #14 ) ;
#145 = AXIS2_PLACEMENT_3D ( 'NONE', #163, #125, #79 ) ;
#146 = DATE_AND_TIME ( #85, #8 ) ;
#147 = CARTESIAN_POINT ( 'NONE',  ( 0.0000000000000000000, 0.0000000000000000000, 0.0000000000000000000 ) ) ;
#148 = DIRECTION ( 'NONE',  ( -0.0000000000000000000, -0.0000000000000000000, -1.000000000000000000 ) ) ;
#149 = DESIGN_CONTEXT ( 'detailed design', #172, 'design' ) ;
#150 = ADVANCED_FACE ( 'NONE', ( #53 ), #119, .F. ) ;
#151 = LINE ( 'NONE', #71, #5 ) ;
#152 = DATE_AND_TIME ( #169, #86 ) ;
#153 = PERSON ( 'UNSPECIFIED', 'UNSPECIFIED', 'UNSPECIFIED', ('UNSPECIFIED'), ('UNSPECIFIED'), ('UNSPECIFIED') ) ;
#154 = ORGANIZATION ( 'UNSPECIFIED', 'UNSPECIFIED', '' ) ;
#155 = CIRCLE ( 'NONE', #40, 6.249999999999998200 ) ;
#156 = PERSON_AND_ORGANIZATION_ROLE ( 'creator' ) ;
#157 = APPROVAL_STATUS ( 'not_yet_approved' ) ;
#158 = DIRECTION ( 'NONE',  ( 0.0000000000000000000, 0.0000000000000000000, 1.000000000000000000 ) ) ;
#159 = FACE_OUTER_BOUND ( 'NONE', #43, .T. ) ;
#160 = MANIFOLD_SOLID_BREP ( 'Extrude1', #91 ) ;
#161 = PRODUCT_DEFINITION ( 'UNKNOWN', '', #92, #149 ) ;
#162 = PERSON_AND_ORGANIZATION ( #153, #154 ) ;
#163 = CARTESIAN_POINT ( 'NONE',  ( 0.0000000000000000000, 0.0000000000000000000, 3.000000000000000000 ) ) ;
#164 = DIRECTION ( 'NONE',  ( 1.000000000000000000, 0.0000000000000000000, 0.0000000000000000000 ) ) ;
#165 = DIRECTION ( 'NONE',  ( -1.000000000000000000, 0.0000000000000000000, 0.0000000000000000000 ) ) ;
#166 = APPROVAL ( #22, 'UNSPECIFIED' ) ;
#167 = CC_DESIGN_PERSON_AND_ORGANIZATION_ASSIGNMENT ( #175, #78, ( #31 ) ) ;
#168 = CC_DESIGN_APPROVAL ( #166, ( #128 ) ) ;
#169 = CALENDAR_DATE ( 2017, 31, 1 ) ;
#170 = DATE_AND_TIME ( #141, #44 ) ;
#171 = ORIENTED_EDGE ( 'NONE', *, *, #64, .F. ) ;
#172 = APPLICATION_CONTEXT ( 'configuration controlled 3d designs of mechanical parts and assemblies' ) ;
#173 = ORIENTED_EDGE ( 'NONE', *, *, #126, .F. ) ;
#174 = CARTESIAN_POINT ( 'NONE',  ( 0.0000000000000000000, 0.0000000000000000000, 3.000000000000000000 ) ) ;
#175 = PERSON_AND_ORGANIZATION ( #153, #154 ) ;
ENDSEC;
END-ISO-10303-21;
