ISO-10303-21;
HEADER;
FILE_DESCRIPTION (( 'STEP AP203' ),
    '1' );
FILE_NAME ('Web Model 18947_18949.step',
    '2021-07-12T18:31:13',
    ( '' ),
    ( '' ),
    'SwSTEP 2.0',
    'SolidWorks 2018',
    '' );
FILE_SCHEMA (( 'CONFIG_CONTROL_DESIGN' ));
ENDSEC;

DATA;
#1 = CYLINDRICAL_SURFACE ( 'NONE', #128, 37.50000000000000711 ) ;
#2 = LOCAL_TIME ( 14, 31, 13.00000000000000000, #135 ) ;
#3 = CALENDAR_DATE ( 2021, 12, 7 ) ;
#4 = COORDINATED_UNIVERSAL_TIME_OFFSET ( 5, 0, .BEHIND. ) ;
#5 = DIRECTION ( 'NONE',  ( -0.000000000000000000, -0.000000000000000000, -1.000000000000000000 ) ) ;
#6 = CARTESIAN_POINT ( 'NONE',  ( 0.000000000000000000, 0.000000000000000000, 2.000000000000000000 ) ) ;
#7 = ORIENTED_EDGE ( 'NONE', *, *, #109, .F. ) ;
#8 = PERSON_AND_ORGANIZATION_ROLE ( 'creator' ) ;
#9 = ADVANCED_FACE ( 'NONE', ( #147 ), #46, .F. ) ;
#10 = CIRCLE ( 'NONE', #65, 37.50000000000000711 ) ;
#11 =( NAMED_UNIT ( * ) SI_UNIT ( $, .STERADIAN. ) SOLID_ANGLE_UNIT ( ) );
#12 = APPROVAL_ROLE ( '' ) ;
#13 = UNCERTAINTY_MEASURE_WITH_UNIT (LENGTH_MEASURE( 1.000000000000000082E-05 ), #86, 'distance_accuracy_value', 'NONE');
#14 = ORIENTED_EDGE ( 'NONE', *, *, #53, .F. ) ;
#15 = FACE_OUTER_BOUND ( 'NONE', #55, .T. ) ;
#16 = VERTEX_POINT ( 'NONE', #31 ) ;
#17 = DATE_AND_TIME ( #21, #67 ) ;
#18 = PRODUCT_RELATED_PRODUCT_CATEGORY ( 'detail', '', ( #108 ) ) ;
#19 = ORIENTED_EDGE ( 'NONE', *, *, #87, .T. ) ;
#20 = DIRECTION ( 'NONE',  ( 0.000000000000000000, 0.000000000000000000, 1.000000000000000000 ) ) ;
#21 = CALENDAR_DATE ( 2021, 12, 7 ) ;
#22 = DIRECTION ( 'NONE',  ( 0.000000000000000000, 0.000000000000000000, 1.000000000000000000 ) ) ;
#23 = DIRECTION ( 'NONE',  ( 0.000000000000000000, 0.000000000000000000, 1.000000000000000000 ) ) ;
#24 = ADVANCED_FACE ( 'NONE', ( #123 ), #75, .T. ) ;
#25 = CARTESIAN_POINT ( 'NONE',  ( 0.000000000000000000, 0.000000000000000000, 2.000000000000000000 ) ) ;
#26 = APPROVAL_PERSON_ORGANIZATION ( #97, #100, #36 ) ;
#27 = CC_DESIGN_APPROVAL ( #167, ( #144 ) ) ;
#28 = APPROVAL_PERSON_ORGANIZATION ( #78, #164, #12 ) ;
#29 = DATE_AND_TIME ( #3, #56 ) ;
#30 = COORDINATED_UNIVERSAL_TIME_OFFSET ( 5, 0, .BEHIND. ) ;
#31 = CARTESIAN_POINT ( 'NONE',  ( 37.50000000000000711, 4.592425496802575156E-15, 2.000000000000000000 ) ) ;
#32 = APPLICATION_CONTEXT ( 'configuration controlled 3d designs of mechanical parts and assemblies' ) ;
#33 = APPROVAL_STATUS ( 'not_yet_approved' ) ;
#34 = DIRECTION ( 'NONE',  ( -1.000000000000000000, 0.000000000000000000, 0.000000000000000000 ) ) ;
#35 = PERSON_AND_ORGANIZATION ( #138, #48 ) ;
#36 = APPROVAL_ROLE ( '' ) ;
#37 = CIRCLE ( 'NONE', #93, 37.50000000000000711 ) ;
#38 = EDGE_CURVE ( 'NONE', #16, #45, #37, .T. ) ;
#39 = LINE ( 'NONE', #171, #43 ) ;
#40 = COORDINATED_UNIVERSAL_TIME_OFFSET ( 5, 0, .BEHIND. ) ;
#41 = DESIGN_CONTEXT ( 'detailed design', #114, 'design' ) ;
#42 = EDGE_LOOP ( 'NONE', ( #153, #7 ) ) ;
#43 = VECTOR ( 'NONE', #44, 1000.000000000000000 ) ;
#44 = DIRECTION ( 'NONE',  ( -0.000000000000000000, -0.000000000000000000, -1.000000000000000000 ) ) ;
#45 = VERTEX_POINT ( 'NONE', #172 ) ;
#46 = PLANE ( 'NONE',  #122 ) ;
#47 = CARTESIAN_POINT ( 'NONE',  ( 0.000000000000000000, 0.000000000000000000, 0.000000000000000000 ) ) ;
#48 = ORGANIZATION ( 'UNSPECIFIED', 'UNSPECIFIED', '' ) ;
#49 =( NAMED_UNIT ( * ) PLANE_ANGLE_UNIT ( ) SI_UNIT ( $, .RADIAN. ) );
#50 = AXIS2_PLACEMENT_3D ( 'NONE', #124, #5, #60 ) ;
#51 = CLOSED_SHELL ( 'NONE', ( #24, #140, #110, #9 ) ) ;
#52 = CC_DESIGN_PERSON_AND_ORGANIZATION_ASSIGNMENT ( #35, #175, ( #144 ) ) ;
#53 = EDGE_CURVE ( 'NONE', #16, #148, #39, .T. ) ;
#54 = EDGE_LOOP ( 'NONE', ( #14, #89, #95, #82 ) ) ;
#55 = EDGE_LOOP ( 'NONE', ( #19, #117 ) ) ;
#56 = LOCAL_TIME ( 14, 31, 13.00000000000000000, #30 ) ;
#57 = AXIS2_PLACEMENT_3D ( 'NONE', #77, #173, #98 ) ;
#58 = CALENDAR_DATE ( 2021, 12, 7 ) ;
#59 = CARTESIAN_POINT ( 'NONE',  ( -37.50000000000000711, 0.000000000000000000, 2.000000000000000000 ) ) ;
#60 = DIRECTION ( 'NONE',  ( -1.000000000000000000, 0.000000000000000000, 0.000000000000000000 ) ) ;
#61 = MECHANICAL_CONTEXT ( 'NONE', #32, 'mechanical' ) ;
#62 = CC_DESIGN_DATE_AND_TIME_ASSIGNMENT ( #125, #88, ( #149 ) ) ;
#63 = DIRECTION ( 'NONE',  ( 1.000000000000000000, 0.000000000000000000, -0.000000000000000000 ) ) ;
#64 = APPLICATION_PROTOCOL_DEFINITION ( 'international standard', 'config_control_design', 1994, #114 ) ;
#65 = AXIS2_PLACEMENT_3D ( 'NONE', #81, #20, #83 ) ;
#66 = ORIENTED_EDGE ( 'NONE', *, *, #38, .F. ) ;
#67 = LOCAL_TIME ( 14, 31, 13.00000000000000000, #40 ) ;
#68 = FACE_OUTER_BOUND ( 'NONE', #54, .T. ) ;
#69 = LOCAL_TIME ( 14, 31, 13.00000000000000000, #162 ) ;
#70 = DATE_AND_TIME ( #103, #170 ) ;
#71 = DIRECTION ( 'NONE',  ( -0.000000000000000000, -0.000000000000000000, -1.000000000000000000 ) ) ;
#72 = DIRECTION ( 'NONE',  ( 1.000000000000000000, 0.000000000000000000, 0.000000000000000000 ) ) ;
#73 = APPROVAL_DATE_TIME ( #29, #164 ) ;
#74 = SECURITY_CLASSIFICATION_LEVEL ( 'unclassified' ) ;
#75 = CYLINDRICAL_SURFACE ( 'NONE', #50, 37.50000000000000711 ) ;
#76 = PERSON_AND_ORGANIZATION ( #138, #48 ) ;
#77 = CARTESIAN_POINT ( 'NONE',  ( 0.000000000000000000, 0.000000000000000000, 0.000000000000000000 ) ) ;
#78 = PERSON_AND_ORGANIZATION ( #138, #48 ) ;
#79 = AXIS2_PLACEMENT_3D ( 'NONE', #47, #142, #156 ) ;
#80 = VECTOR ( 'NONE', #71, 1000.000000000000000 ) ;
#81 = CARTESIAN_POINT ( 'NONE',  ( 0.000000000000000000, 0.000000000000000000, 2.000000000000000000 ) ) ;
#82 = ORIENTED_EDGE ( 'NONE', *, *, #131, .T. ) ;
#83 = DIRECTION ( 'NONE',  ( 1.000000000000000000, 0.000000000000000000, 0.000000000000000000 ) ) ;
#84 = PERSON_AND_ORGANIZATION_ROLE ( 'classification_officer' ) ;
#85 = CARTESIAN_POINT ( 'NONE',  ( 0.000000000000000000, 0.000000000000000000, 2.000000000000000000 ) ) ;
#86 =( LENGTH_UNIT ( ) NAMED_UNIT ( * ) SI_UNIT ( .MILLI., .METRE. ) );
#87 = EDGE_CURVE ( 'NONE', #45, #16, #10, .T. ) ;
#88 = DATE_TIME_ROLE ( 'classification_date' ) ;
#89 = ORIENTED_EDGE ( 'NONE', *, *, #87, .F. ) ;
#90 = VERTEX_POINT ( 'NONE', #137 ) ;
#91 = PERSON_AND_ORGANIZATION ( #138, #48 ) ;
#92 = EDGE_CURVE ( 'NONE', #45, #90, #104, .T. ) ;
#93 = AXIS2_PLACEMENT_3D ( 'NONE', #6, #151, #72 ) ;
#94 = CC_DESIGN_PERSON_AND_ORGANIZATION_ASSIGNMENT ( #116, #84, ( #149 ) ) ;
#95 = ORIENTED_EDGE ( 'NONE', *, *, #92, .T. ) ;
#96 = AXIS2_PLACEMENT_3D ( 'NONE', #25, #23, #63 ) ;
#97 = PERSON_AND_ORGANIZATION ( #138, #48 ) ;
#98 = DIRECTION ( 'NONE',  ( 1.000000000000000000, 0.000000000000000000, 0.000000000000000000 ) ) ;
#99 = DIRECTION ( 'NONE',  ( 1.000000000000000000, 0.000000000000000000, 0.000000000000000000 ) ) ;
#100 = APPROVAL ( #152, 'UNSPECIFIED' ) ;
#101 = ADVANCED_BREP_SHAPE_REPRESENTATION ( 'Web Model 18947_18949', ( #165, #136 ), #102 ) ;
#102 =( GEOMETRIC_REPRESENTATION_CONTEXT ( 3 ) GLOBAL_UNCERTAINTY_ASSIGNED_CONTEXT ( ( #13 ) ) GLOBAL_UNIT_ASSIGNED_CONTEXT ( ( #86, #49, #11 ) ) REPRESENTATION_CONTEXT ( 'NONE', 'WORKASPACE' ) );
#103 = CALENDAR_DATE ( 2021, 12, 7 ) ;
#104 = LINE ( 'NONE', #59, #80 ) ;
#105 = CC_DESIGN_APPROVAL ( #100, ( #106 ) ) ;
#106 = PRODUCT_DEFINITION ( 'UNKNOWN', '', #144, #41 ) ;
#107 = PERSON_AND_ORGANIZATION ( #138, #48 ) ;
#108 = PRODUCT ( 'Web Model 18947_18949', 'Web Model 18947_18949', '', ( #61 ) ) ;
#109 = EDGE_CURVE ( 'NONE', #148, #90, #118, .T. ) ;
#110 = ADVANCED_FACE ( 'NONE', ( #15 ), #169, .T. ) ;
#111 = CARTESIAN_POINT ( 'NONE',  ( 37.50000000000000711, 4.592425496802575156E-15, 0.000000000000000000 ) ) ;
#112 = APPROVAL_STATUS ( 'not_yet_approved' ) ;
#113 = CC_DESIGN_PERSON_AND_ORGANIZATION_ASSIGNMENT ( #76, #141, ( #108 ) ) ;
#114 = APPLICATION_CONTEXT ( 'configuration controlled 3d designs of mechanical parts and assemblies' ) ;
#115 = CC_DESIGN_PERSON_AND_ORGANIZATION_ASSIGNMENT ( #133, #154, ( #144 ) ) ;
#116 = PERSON_AND_ORGANIZATION ( #138, #48 ) ;
#117 = ORIENTED_EDGE ( 'NONE', *, *, #38, .T. ) ;
#118 = CIRCLE ( 'NONE', #57, 37.50000000000000711 ) ;
#119 = ORIENTED_EDGE ( 'NONE', *, *, #92, .F. ) ;
#120 = EDGE_LOOP ( 'NONE', ( #66, #129, #160, #119 ) ) ;
#121 = SHAPE_DEFINITION_REPRESENTATION ( #163, #101 ) ;
#122 = AXIS2_PLACEMENT_3D ( 'NONE', #139, #22, #127 ) ;
#123 = FACE_OUTER_BOUND ( 'NONE', #120, .T. ) ;
#124 = CARTESIAN_POINT ( 'NONE',  ( 0.000000000000000000, 0.000000000000000000, 2.000000000000000000 ) ) ;
#125 = DATE_AND_TIME ( #58, #2 ) ;
#126 = CC_DESIGN_SECURITY_CLASSIFICATION ( #149, ( #144 ) ) ;
#127 = DIRECTION ( 'NONE',  ( 1.000000000000000000, 0.000000000000000000, -0.000000000000000000 ) ) ;
#128 = AXIS2_PLACEMENT_3D ( 'NONE', #85, #132, #34 ) ;
#129 = ORIENTED_EDGE ( 'NONE', *, *, #53, .T. ) ;
#130 = APPLICATION_PROTOCOL_DEFINITION ( 'international standard', 'config_control_design', 1994, #32 ) ;
#131 = EDGE_CURVE ( 'NONE', #90, #148, #161, .T. ) ;
#132 = DIRECTION ( 'NONE',  ( -0.000000000000000000, -0.000000000000000000, -1.000000000000000000 ) ) ;
#133 = PERSON_AND_ORGANIZATION ( #138, #48 ) ;
#134 = CC_DESIGN_APPROVAL ( #164, ( #149 ) ) ;
#135 = COORDINATED_UNIVERSAL_TIME_OFFSET ( 5, 0, .BEHIND. ) ;
#136 = AXIS2_PLACEMENT_3D ( 'NONE', #158, #143, #99 ) ;
#137 = CARTESIAN_POINT ( 'NONE',  ( -37.50000000000000711, 0.000000000000000000, 0.000000000000000000 ) ) ;
#138 = PERSON ( 'UNSPECIFIED', 'UNSPECIFIED', 'UNSPECIFIED', ('UNSPECIFIED'), ('UNSPECIFIED'), ('UNSPECIFIED') ) ;
#139 = CARTESIAN_POINT ( 'NONE',  ( 0.000000000000000000, 0.000000000000000000, 0.000000000000000000 ) ) ;
#140 = ADVANCED_FACE ( 'NONE', ( #68 ), #1, .T. ) ;
#141 = PERSON_AND_ORGANIZATION_ROLE ( 'design_owner' ) ;
#142 = DIRECTION ( 'NONE',  ( 0.000000000000000000, 0.000000000000000000, 1.000000000000000000 ) ) ;
#143 = DIRECTION ( 'NONE',  ( 0.000000000000000000, 0.000000000000000000, 1.000000000000000000 ) ) ;
#144 = PRODUCT_DEFINITION_FORMATION_WITH_SPECIFIED_SOURCE ( 'ANY', '', #108, .NOT_KNOWN. ) ;
#145 = CC_DESIGN_PERSON_AND_ORGANIZATION_ASSIGNMENT ( #91, #8, ( #106 ) ) ;
#146 = CALENDAR_DATE ( 2021, 12, 7 ) ;
#147 = FACE_OUTER_BOUND ( 'NONE', #42, .T. ) ;
#148 = VERTEX_POINT ( 'NONE', #111 ) ;
#149 = SECURITY_CLASSIFICATION ( '', '', #74 ) ;
#150 = APPROVAL_PERSON_ORGANIZATION ( #107, #167, #157 ) ;
#151 = DIRECTION ( 'NONE',  ( 0.000000000000000000, 0.000000000000000000, 1.000000000000000000 ) ) ;
#152 = APPROVAL_STATUS ( 'not_yet_approved' ) ;
#153 = ORIENTED_EDGE ( 'NONE', *, *, #131, .F. ) ;
#154 = PERSON_AND_ORGANIZATION_ROLE ( 'creator' ) ;
#155 = CC_DESIGN_DATE_AND_TIME_ASSIGNMENT ( #166, #174, ( #106 ) ) ;
#156 = DIRECTION ( 'NONE',  ( 1.000000000000000000, 0.000000000000000000, 0.000000000000000000 ) ) ;
#157 = APPROVAL_ROLE ( '' ) ;
#158 = CARTESIAN_POINT ( 'NONE',  ( 0.000000000000000000, 0.000000000000000000, 0.000000000000000000 ) ) ;
#159 = APPROVAL_DATE_TIME ( #70, #167 ) ;
#160 = ORIENTED_EDGE ( 'NONE', *, *, #109, .T. ) ;
#161 = CIRCLE ( 'NONE', #79, 37.50000000000000711 ) ;
#162 = COORDINATED_UNIVERSAL_TIME_OFFSET ( 5, 0, .BEHIND. ) ;
#163 = PRODUCT_DEFINITION_SHAPE ( 'NONE', 'NONE',  #106 ) ;
#164 = APPROVAL ( #33, 'UNSPECIFIED' ) ;
#165 = MANIFOLD_SOLID_BREP ( 'Boss-Extrude1', #51 ) ;
#166 = DATE_AND_TIME ( #146, #69 ) ;
#167 = APPROVAL ( #112, 'UNSPECIFIED' ) ;
#168 = APPROVAL_DATE_TIME ( #17, #100 ) ;
#169 = PLANE ( 'NONE',  #96 ) ;
#170 = LOCAL_TIME ( 14, 31, 13.00000000000000000, #4 ) ;
#171 = CARTESIAN_POINT ( 'NONE',  ( 37.50000000000000711, 4.592425496802575156E-15, 2.000000000000000000 ) ) ;
#172 = CARTESIAN_POINT ( 'NONE',  ( -37.50000000000000711, 0.000000000000000000, 2.000000000000000000 ) ) ;
#173 = DIRECTION ( 'NONE',  ( 0.000000000000000000, 0.000000000000000000, 1.000000000000000000 ) ) ;
#174 = DATE_TIME_ROLE ( 'creation_date' ) ;
#175 = PERSON_AND_ORGANIZATION_ROLE ( 'design_supplier' ) ;
ENDSEC;
END-ISO-10303-21;
