ISO-10303-21;
HEADER;
FILE_DESCRIPTION (( 'STEP AP203' ),
    '1' );
FILE_NAME ('Web Model 45569_45813.step',
    '2019-01-07T15:35:19',
    ( '' ),
    ( '' ),
    'SwSTEP 2.0',
    'SolidWorks 2016',
    '' );
FILE_SCHEMA (( 'CONFIG_CONTROL_DESIGN' ));
ENDSEC;

DATA;
#1 = DIRECTION ( 'NONE',  ( -0.0000000000000000000, -0.0000000000000000000, -1.000000000000000000 ) ) ;
#2 = ORIENTED_EDGE ( 'NONE', *, *, #115, .F. ) ;
#3 = APPROVAL_PERSON_ORGANIZATION ( #160, #65, #43 ) ;
#4 =( NAMED_UNIT ( * ) PLANE_ANGLE_UNIT ( ) SI_UNIT ( $, .RADIAN. ) );
#5 = CARTESIAN_POINT ( 'NONE',  ( 0.0000000000000000000, 0.0000000000000000000, 1.500000000000000000 ) ) ;
#6 = CC_DESIGN_PERSON_AND_ORGANIZATION_ASSIGNMENT ( #69, #7, ( #166 ) ) ;
#7 = PERSON_AND_ORGANIZATION_ROLE ( 'creator' ) ;
#8 = DIRECTION ( 'NONE',  ( 0.0000000000000000000, 0.0000000000000000000, 1.000000000000000000 ) ) ;
#9 = AXIS2_PLACEMENT_3D ( 'NONE', #29, #54, #158 ) ;
#10 = ORIENTED_EDGE ( 'NONE', *, *, #133, .T. ) ;
#11 = VECTOR ( 'NONE', #1, 1000.000000000000000 ) ;
#12 = COORDINATED_UNIVERSAL_TIME_OFFSET ( 5, 0, .BEHIND. ) ;
#13 = LINE ( 'NONE', #90, #11 ) ;
#14 = APPLICATION_PROTOCOL_DEFINITION ( 'international standard', 'config_control_design', 1994, #96 ) ;
#15 = PLANE ( 'NONE',  #120 ) ;
#16 = PERSON_AND_ORGANIZATION ( #70, #108 ) ;
#17 = APPROVAL_PERSON_ORGANIZATION ( #47, #31, #68 ) ;
#18 = PRODUCT_DEFINITION_SHAPE ( 'NONE', 'NONE',  #34 ) ;
#19 = ADVANCED_FACE ( 'NONE', ( #58 ), #20, .T. ) ;
#20 = CYLINDRICAL_SURFACE ( 'NONE', #23, 15.00000000000000000 ) ;
#21 = APPROVAL_DATE_TIME ( #107, #173 ) ;
#22 = DIRECTION ( 'NONE',  ( -1.000000000000000000, 0.0000000000000000000, 0.0000000000000000000 ) ) ;
#23 = AXIS2_PLACEMENT_3D ( 'NONE', #137, #164, #22 ) ;
#24 = FACE_OUTER_BOUND ( 'NONE', #79, .T. ) ;
#25 = APPROVAL_STATUS ( 'not_yet_approved' ) ;
#26 = APPLICATION_CONTEXT ( 'configuration controlled 3d designs of mechanical parts and assemblies' ) ;
#27 = PERSON_AND_ORGANIZATION_ROLE ( 'classification_officer' ) ;
#28 = SECURITY_CLASSIFICATION_LEVEL ( 'unclassified' ) ;
#29 = CARTESIAN_POINT ( 'NONE',  ( 0.0000000000000000000, 0.0000000000000000000, 1.500000000000000000 ) ) ;
#30 = ORIENTED_EDGE ( 'NONE', *, *, #100, .F. ) ;
#31 = APPROVAL ( #25, 'UNSPECIFIED' ) ;
#32 = CIRCLE ( 'NONE', #136, 15.00000000000000000 ) ;
#33 = APPROVAL_DATE_TIME ( #142, #31 ) ;
#34 = PRODUCT_DEFINITION ( 'UNKNOWN', '', #166, #87 ) ;
#35 = COORDINATED_UNIVERSAL_TIME_OFFSET ( 5, 0, .BEHIND. ) ;
#36 = CIRCLE ( 'NONE', #147, 15.00000000000000000 ) ;
#37 = PERSON_AND_ORGANIZATION ( #70, #108 ) ;
#38 = CARTESIAN_POINT ( 'NONE',  ( 15.00000000000000000, 1.836970198721029600E-015, 1.500000000000000000 ) ) ;
#39 = ORIENTED_EDGE ( 'NONE', *, *, #133, .F. ) ;
#40 = CARTESIAN_POINT ( 'NONE',  ( 0.0000000000000000000, 0.0000000000000000000, -1.500000000000000000 ) ) ;
#41 = AXIS2_PLACEMENT_3D ( 'NONE', #126, #8, #170 ) ;
#42 = APPROVAL_STATUS ( 'not_yet_approved' ) ;
#43 = APPROVAL_ROLE ( '' ) ;
#44 = APPROVAL_STATUS ( 'not_yet_approved' ) ;
#45 = DATE_TIME_ROLE ( 'creation_date' ) ;
#46 = CC_DESIGN_PERSON_AND_ORGANIZATION_ASSIGNMENT ( #152, #84, ( #34 ) ) ;
#47 = PERSON_AND_ORGANIZATION ( #70, #108 ) ;
#48 = AXIS2_PLACEMENT_3D ( 'NONE', #5, #144, #167 ) ;
#49 = VERTEX_POINT ( 'NONE', #67 ) ;
#50 = CARTESIAN_POINT ( 'NONE',  ( -15.00000000000000000, 0.0000000000000000000, -1.500000000000000000 ) ) ;
#51 = AXIS2_PLACEMENT_3D ( 'NONE', #156, #94, #125 ) ;
#52 = PRODUCT ( 'Web Model 45569_45813', 'Web Model 45569_45813', '', ( #56 ) ) ;
#53 = ORIENTED_EDGE ( 'NONE', *, *, #122, .T. ) ;
#54 = DIRECTION ( 'NONE',  ( 0.0000000000000000000, 0.0000000000000000000, 1.000000000000000000 ) ) ;
#55 = CC_DESIGN_DATE_AND_TIME_ASSIGNMENT ( #57, #131, ( #103 ) ) ;
#56 = MECHANICAL_CONTEXT ( 'NONE', #96, 'mechanical' ) ;
#57 = DATE_AND_TIME ( #106, #104 ) ;
#58 = FACE_OUTER_BOUND ( 'NONE', #113, .T. ) ;
#59 = COORDINATED_UNIVERSAL_TIME_OFFSET ( 5, 0, .BEHIND. ) ;
#60 = CIRCLE ( 'NONE', #41, 15.00000000000000000 ) ;
#61 = CC_DESIGN_DATE_AND_TIME_ASSIGNMENT ( #77, #45, ( #34 ) ) ;
#62 = ORIENTED_EDGE ( 'NONE', *, *, #91, .T. ) ;
#63 = DATE_AND_TIME ( #169, #141 ) ;
#64 = VECTOR ( 'NONE', #95, 1000.000000000000000 ) ;
#65 = APPROVAL ( #44, 'UNSPECIFIED' ) ;
#66 = PERSON_AND_ORGANIZATION ( #70, #108 ) ;
#67 = CARTESIAN_POINT ( 'NONE',  ( 15.00000000000000000, 1.836970198721029600E-015, -1.500000000000000000 ) ) ;
#68 = APPROVAL_ROLE ( '' ) ;
#69 = PERSON_AND_ORGANIZATION ( #70, #108 ) ;
#70 = PERSON ( 'UNSPECIFIED', 'UNSPECIFIED', 'UNSPECIFIED', ('UNSPECIFIED'), ('UNSPECIFIED'), ('UNSPECIFIED') ) ;
#71 = DIRECTION ( 'NONE',  ( 0.0000000000000000000, 0.0000000000000000000, 1.000000000000000000 ) ) ;
#72 =( NAMED_UNIT ( * ) SI_UNIT ( $, .STERADIAN. ) SOLID_ANGLE_UNIT ( ) );
#73 = CYLINDRICAL_SURFACE ( 'NONE', #48, 15.00000000000000000 ) ;
#74 = VERTEX_POINT ( 'NONE', #50 ) ;
#75 = CALENDAR_DATE ( 2019, 7, 1 ) ;
#76 = CC_DESIGN_APPROVAL ( #173, ( #166 ) ) ;
#77 = DATE_AND_TIME ( #175, #85 ) ;
#78 = CC_DESIGN_APPROVAL ( #65, ( #103 ) ) ;
#79 = EDGE_LOOP ( 'NONE', ( #30, #109, #53, #118 ) ) ;
#80 = CC_DESIGN_APPROVAL ( #31, ( #34 ) ) ;
#81 = COORDINATED_UNIVERSAL_TIME_OFFSET ( 5, 0, .BEHIND. ) ;
#82 = ADVANCED_BREP_SHAPE_REPRESENTATION ( 'Web Model 45569_45813', ( #150, #124 ), #157 ) ;
#83 = DIRECTION ( 'NONE',  ( 1.000000000000000000, 0.0000000000000000000, -0.0000000000000000000 ) ) ;
#84 = PERSON_AND_ORGANIZATION_ROLE ( 'creator' ) ;
#85 = LOCAL_TIME ( 10, 35, 19.00000000000000000, #59 ) ;
#86 = APPROVAL_PERSON_ORGANIZATION ( #66, #173, #145 ) ;
#87 = DESIGN_CONTEXT ( 'detailed design', #26, 'design' ) ;
#88 = ADVANCED_FACE ( 'NONE', ( #165 ), #153, .F. ) ;
#89 = CC_DESIGN_PERSON_AND_ORGANIZATION_ASSIGNMENT ( #172, #102, ( #166 ) ) ;
#90 = CARTESIAN_POINT ( 'NONE',  ( -15.00000000000000000, 0.0000000000000000000, 1.500000000000000000 ) ) ;
#91 = EDGE_CURVE ( 'NONE', #134, #74, #13, .T. ) ;
#92 = FACE_OUTER_BOUND ( 'NONE', #168, .T. ) ;
#93 = UNCERTAINTY_MEASURE_WITH_UNIT (LENGTH_MEASURE( 1.000000000000000100E-005 ), #99, 'distance_accuracy_value', 'NONE');
#94 = DIRECTION ( 'NONE',  ( 0.0000000000000000000, 0.0000000000000000000, 1.000000000000000000 ) ) ;
#95 = DIRECTION ( 'NONE',  ( -0.0000000000000000000, -0.0000000000000000000, -1.000000000000000000 ) ) ;
#96 = APPLICATION_CONTEXT ( 'configuration controlled 3d designs of mechanical parts and assemblies' ) ;
#97 = CLOSED_SHELL ( 'NONE', ( #174, #19, #163, #88 ) ) ;
#98 = LOCAL_TIME ( 10, 35, 19.00000000000000000, #12 ) ;
#99 =( LENGTH_UNIT ( ) NAMED_UNIT ( * ) SI_UNIT ( .MILLI., .METRE. ) );
#100 = EDGE_CURVE ( 'NONE', #132, #134, #36, .T. ) ;
#101 = DIRECTION ( 'NONE',  ( 1.000000000000000000, 0.0000000000000000000, 0.0000000000000000000 ) ) ;
#102 = PERSON_AND_ORGANIZATION_ROLE ( 'design_supplier' ) ;
#103 = SECURITY_CLASSIFICATION ( '', '', #28 ) ;
#104 = LOCAL_TIME ( 10, 35, 19.00000000000000000, #35 ) ;
#105 = CIRCLE ( 'NONE', #9, 15.00000000000000000 ) ;
#106 = CALENDAR_DATE ( 2019, 7, 1 ) ;
#107 = DATE_AND_TIME ( #75, #135 ) ;
#108 = ORGANIZATION ( 'UNSPECIFIED', 'UNSPECIFIED', '' ) ;
#109 = ORIENTED_EDGE ( 'NONE', *, *, #115, .T. ) ;
#110 = DIRECTION ( 'NONE',  ( 0.0000000000000000000, 0.0000000000000000000, 1.000000000000000000 ) ) ;
#111 = PERSON_AND_ORGANIZATION_ROLE ( 'design_owner' ) ;
#112 = CARTESIAN_POINT ( 'NONE',  ( 0.0000000000000000000, 0.0000000000000000000, 0.0000000000000000000 ) ) ;
#113 = EDGE_LOOP ( 'NONE', ( #2, #148, #62, #10 ) ) ;
#114 = DIRECTION ( 'NONE',  ( 1.000000000000000000, 0.0000000000000000000, 0.0000000000000000000 ) ) ;
#115 = EDGE_CURVE ( 'NONE', #132, #49, #119, .T. ) ;
#116 = CARTESIAN_POINT ( 'NONE',  ( -15.00000000000000000, 0.0000000000000000000, 1.500000000000000000 ) ) ;
#117 = EDGE_CURVE ( 'NONE', #134, #132, #105, .T. ) ;
#118 = ORIENTED_EDGE ( 'NONE', *, *, #91, .F. ) ;
#119 = LINE ( 'NONE', #38, #64 ) ;
#120 = AXIS2_PLACEMENT_3D ( 'NONE', #130, #159, #83 ) ;
#121 = APPROVAL_DATE_TIME ( #63, #65 ) ;
#122 = EDGE_CURVE ( 'NONE', #49, #74, #32, .T. ) ;
#123 = CARTESIAN_POINT ( 'NONE',  ( 0.0000000000000000000, 0.0000000000000000000, 1.500000000000000000 ) ) ;
#124 = AXIS2_PLACEMENT_3D ( 'NONE', #112, #128, #114 ) ;
#125 = DIRECTION ( 'NONE',  ( 1.000000000000000000, 0.0000000000000000000, -0.0000000000000000000 ) ) ;
#126 = CARTESIAN_POINT ( 'NONE',  ( 0.0000000000000000000, 0.0000000000000000000, -1.500000000000000000 ) ) ;
#127 = ORIENTED_EDGE ( 'NONE', *, *, #117, .T. ) ;
#128 = DIRECTION ( 'NONE',  ( 0.0000000000000000000, 0.0000000000000000000, 1.000000000000000000 ) ) ;
#129 = COORDINATED_UNIVERSAL_TIME_OFFSET ( 5, 0, .BEHIND. ) ;
#130 = CARTESIAN_POINT ( 'NONE',  ( 0.0000000000000000000, 0.0000000000000000000, 1.500000000000000000 ) ) ;
#131 = DATE_TIME_ROLE ( 'classification_date' ) ;
#132 = VERTEX_POINT ( 'NONE', #140 ) ;
#133 = EDGE_CURVE ( 'NONE', #74, #49, #60, .T. ) ;
#134 = VERTEX_POINT ( 'NONE', #116 ) ;
#135 = LOCAL_TIME ( 10, 35, 19.00000000000000000, #81 ) ;
#136 = AXIS2_PLACEMENT_3D ( 'NONE', #40, #71, #101 ) ;
#137 = CARTESIAN_POINT ( 'NONE',  ( 0.0000000000000000000, 0.0000000000000000000, 1.500000000000000000 ) ) ;
#138 = EDGE_LOOP ( 'NONE', ( #39, #151 ) ) ;
#139 = CALENDAR_DATE ( 2019, 7, 1 ) ;
#140 = CARTESIAN_POINT ( 'NONE',  ( 15.00000000000000000, 1.836970198721029600E-015, 1.500000000000000000 ) ) ;
#141 = LOCAL_TIME ( 10, 35, 19.00000000000000000, #129 ) ;
#142 = DATE_AND_TIME ( #139, #98 ) ;
#143 = CC_DESIGN_PERSON_AND_ORGANIZATION_ASSIGNMENT ( #16, #27, ( #103 ) ) ;
#144 = DIRECTION ( 'NONE',  ( -0.0000000000000000000, -0.0000000000000000000, -1.000000000000000000 ) ) ;
#145 = APPROVAL_ROLE ( '' ) ;
#146 = SHAPE_DEFINITION_REPRESENTATION ( #18, #82 ) ;
#147 = AXIS2_PLACEMENT_3D ( 'NONE', #123, #110, #155 ) ;
#148 = ORIENTED_EDGE ( 'NONE', *, *, #117, .F. ) ;
#149 = CC_DESIGN_PERSON_AND_ORGANIZATION_ASSIGNMENT ( #37, #111, ( #52 ) ) ;
#150 = MANIFOLD_SOLID_BREP ( 'Boss-Extrude1', #97 ) ;
#151 = ORIENTED_EDGE ( 'NONE', *, *, #122, .F. ) ;
#152 = PERSON_AND_ORGANIZATION ( #70, #108 ) ;
#153 = PLANE ( 'NONE',  #51 ) ;
#154 = CC_DESIGN_SECURITY_CLASSIFICATION ( #103, ( #166 ) ) ;
#155 = DIRECTION ( 'NONE',  ( 1.000000000000000000, 0.0000000000000000000, 0.0000000000000000000 ) ) ;
#156 = CARTESIAN_POINT ( 'NONE',  ( 0.0000000000000000000, 0.0000000000000000000, -1.500000000000000000 ) ) ;
#157 =( GEOMETRIC_REPRESENTATION_CONTEXT ( 3 ) GLOBAL_UNCERTAINTY_ASSIGNED_CONTEXT ( ( #93 ) ) GLOBAL_UNIT_ASSIGNED_CONTEXT ( ( #99, #4, #72 ) ) REPRESENTATION_CONTEXT ( 'NONE', 'WORKASPACE' ) );
#158 = DIRECTION ( 'NONE',  ( 1.000000000000000000, 0.0000000000000000000, 0.0000000000000000000 ) ) ;
#159 = DIRECTION ( 'NONE',  ( 0.0000000000000000000, 0.0000000000000000000, 1.000000000000000000 ) ) ;
#160 = PERSON_AND_ORGANIZATION ( #70, #108 ) ;
#161 = APPLICATION_PROTOCOL_DEFINITION ( 'international standard', 'config_control_design', 1994, #26 ) ;
#162 = PRODUCT_RELATED_PRODUCT_CATEGORY ( 'detail', '', ( #52 ) ) ;
#163 = ADVANCED_FACE ( 'NONE', ( #92 ), #15, .T. ) ;
#164 = DIRECTION ( 'NONE',  ( -0.0000000000000000000, -0.0000000000000000000, -1.000000000000000000 ) ) ;
#165 = FACE_OUTER_BOUND ( 'NONE', #138, .T. ) ;
#166 = PRODUCT_DEFINITION_FORMATION_WITH_SPECIFIED_SOURCE ( 'ANY', '', #52, .NOT_KNOWN. ) ;
#167 = DIRECTION ( 'NONE',  ( -1.000000000000000000, 0.0000000000000000000, 0.0000000000000000000 ) ) ;
#168 = EDGE_LOOP ( 'NONE', ( #127, #171 ) ) ;
#169 = CALENDAR_DATE ( 2019, 7, 1 ) ;
#170 = DIRECTION ( 'NONE',  ( 1.000000000000000000, 0.0000000000000000000, 0.0000000000000000000 ) ) ;
#171 = ORIENTED_EDGE ( 'NONE', *, *, #100, .T. ) ;
#172 = PERSON_AND_ORGANIZATION ( #70, #108 ) ;
#173 = APPROVAL ( #42, 'UNSPECIFIED' ) ;
#174 = ADVANCED_FACE ( 'NONE', ( #24 ), #73, .T. ) ;
#175 = CALENDAR_DATE ( 2019, 7, 1 ) ;
ENDSEC;
END-ISO-10303-21;
