ISO-10303-21;
HEADER;
FILE_DESCRIPTION (( 'STEP AP203' ),
    '1' );
FILE_NAME ('Web Model 11877_13354.step',
    '2020-11-04T13:43:21',
    ( '' ),
    ( '' ),
    'SwSTEP 2.0',
    'SolidWorks 2018',
    '' );
FILE_SCHEMA (( 'CONFIG_CONTROL_DESIGN' ));
ENDSEC;

DATA;
#1 = DIRECTION ( 'NONE',  ( 0.0000000000000000000, 0.0000000000000000000, -1.000000000000000000 ) ) ;
#2 = APPROVAL ( #73, 'UNSPECIFIED' ) ;
#3 = CARTESIAN_POINT ( 'NONE',  ( 0.9500000000000072831, 1.530808498934191521E-15, -12.50000000000000000 ) ) ;
#4 = DIRECTION ( 'NONE',  ( 1.000000000000000000, 0.0000000000000000000, 0.0000000000000000000 ) ) ;
#5 = LINE ( 'NONE', #109, #36 ) ;
#6 = DIRECTION ( 'NONE',  ( 1.000000000000000000, -0.0000000000000000000, -0.0000000000000000000 ) ) ;
#7 = APPROVAL_DATE_TIME ( #89, #191 ) ;
#8 = APPLICATION_PROTOCOL_DEFINITION ( 'international standard', 'config_control_design', 1994, #54 ) ;
#9 = ORIENTED_EDGE ( 'NONE', *, *, #172, .F. ) ;
#10 = EDGE_CURVE ( 'NONE', #12, #112, #110, .T. ) ;
#11 = CALENDAR_DATE ( 2020, 4, 11 ) ;
#12 = VERTEX_POINT ( 'NONE', #250 ) ;
#13 = CARTESIAN_POINT ( 'NONE',  ( 1.000000000000000000, 0.0000000000000000000, 0.0000000000000000000 ) ) ;
#14 = DATE_AND_TIME ( #75, #247 ) ;
#15 = ADVANCED_FACE ( 'NONE', ( #269 ), #77, .F. ) ;
#16 = DIRECTION ( 'NONE',  ( -1.000000000000000000, -0.0000000000000000000, -0.0000000000000000000 ) ) ;
#17 = DIRECTION ( 'NONE',  ( 0.0000000000000000000, 0.0000000000000000000, 1.000000000000000000 ) ) ;
#18 = ADVANCED_BREP_SHAPE_REPRESENTATION ( 'Web Model 11877_13354', ( #267, #101 ), #273 ) ;
#19 = AXIS2_PLACEMENT_3D ( 'NONE', #130, #21, #256 ) ;
#20 = PERSON_AND_ORGANIZATION ( #46, #96 ) ;
#21 = DIRECTION ( 'NONE',  ( -1.000000000000000000, 0.0000000000000000000, 0.0000000000000000000 ) ) ;
#22 = DIRECTION ( 'NONE',  ( 1.000000000000000000, 0.0000000000000000000, 0.0000000000000000000 ) ) ;
#23 = APPROVAL_ROLE ( '' ) ;
#24 = ORIENTED_EDGE ( 'NONE', *, *, #138, .T. ) ;
#25 = DIRECTION ( 'NONE',  ( 0.0000000000000000000, 0.0000000000000000000, 1.000000000000000000 ) ) ;
#26 = PRODUCT_DEFINITION_FORMATION_WITH_SPECIFIED_SOURCE ( 'ANY', '', #264, .NOT_KNOWN. ) ;
#27 = EDGE_CURVE ( 'NONE', #76, #128, #168, .T. ) ;
#28 = PERSON_AND_ORGANIZATION ( #46, #96 ) ;
#29 = VERTEX_POINT ( 'NONE', #193 ) ;
#30 = FACE_OUTER_BOUND ( 'NONE', #104, .T. ) ;
#31 = CC_DESIGN_DATE_AND_TIME_ASSIGNMENT ( #121, #118, ( #203 ) ) ;
#32 = VECTOR ( 'NONE', #254, 1000.000000000000000 ) ;
#33 = APPROVAL_PERSON_ORGANIZATION ( #133, #2, #202 ) ;
#34 = EDGE_LOOP ( 'NONE', ( #45, #90, #204, #9 ) ) ;
#35 = EDGE_CURVE ( 'NONE', #189, #195, #210, .T. ) ;
#36 = VECTOR ( 'NONE', #233, 1000.000000000000000 ) ;
#37 = FACE_OUTER_BOUND ( 'NONE', #225, .T. ) ;
#38 = ADVANCED_FACE ( 'NONE', ( #151 ), #161, .T. ) ;
#39 = DIRECTION ( 'NONE',  ( -1.000000000000000000, 0.0000000000000000000, 0.0000000000000000000 ) ) ;
#40 = CARTESIAN_POINT ( 'NONE',  ( 1.000000000000000000, 0.0000000000000000000, 0.0000000000000000000 ) ) ;
#41 = CARTESIAN_POINT ( 'NONE',  ( -1.000000000000000000, 0.0000000000000000000, -12.44999999999999929 ) ) ;
#42 = DIRECTION ( 'NONE',  ( 1.000000000000000000, -0.0000000000000000000, -0.0000000000000000000 ) ) ;
#43 = UNCERTAINTY_MEASURE_WITH_UNIT (LENGTH_MEASURE( 1.000000000000000082E-05 ), #268, 'distance_accuracy_value', 'NONE');
#44 = AXIS2_PLACEMENT_3D ( 'NONE', #84, #67, #231 ) ;
#45 = ORIENTED_EDGE ( 'NONE', *, *, #242, .F. ) ;
#46 = PERSON ( 'UNSPECIFIED', 'UNSPECIFIED', 'UNSPECIFIED', ('UNSPECIFIED'), ('UNSPECIFIED'), ('UNSPECIFIED') ) ;
#47 = LOCAL_TIME ( 8, 43, 21.00000000000000000, #270 ) ;
#48 = ORIENTED_EDGE ( 'NONE', *, *, #10, .F. ) ;
#49 = PLANE ( 'NONE',  #260 ) ;
#50 = PERSON_AND_ORGANIZATION_ROLE ( 'creator' ) ;
#51 = CONICAL_SURFACE ( 'NONE', #19, 12.45000000000000284, 0.7853981633975003485 ) ;
#52 =( NAMED_UNIT ( * ) PLANE_ANGLE_UNIT ( ) SI_UNIT ( $, .RADIAN. ) );
#53 = APPLICATION_CONTEXT ( 'configuration controlled 3d designs of mechanical parts and assemblies' ) ;
#54 = APPLICATION_CONTEXT ( 'configuration controlled 3d designs of mechanical parts and assemblies' ) ;
#55 = AXIS2_PLACEMENT_3D ( 'NONE', #60, #83, #246 ) ;
#56 = EDGE_LOOP ( 'NONE', ( #261, #223, #154, #164 ) ) ;
#57 = EDGE_LOOP ( 'NONE', ( #238, #257, #65, #165 ) ) ;
#58 = AXIS2_PLACEMENT_3D ( 'NONE', #176, #66, #219 ) ;
#59 = APPROVAL_DATE_TIME ( #120, #217 ) ;
#60 = CARTESIAN_POINT ( 'NONE',  ( 1.000000000000000000, 0.0000000000000000000, 0.0000000000000000000 ) ) ;
#61 = ADVANCED_FACE ( 'NONE', ( #102 ), #158, .T. ) ;
#62 = DATE_AND_TIME ( #103, #224 ) ;
#63 = DIRECTION ( 'NONE',  ( 0.0000000000000000000, 0.0000000000000000000, -1.000000000000000000 ) ) ;
#64 = DIRECTION ( 'NONE',  ( 0.0000000000000000000, 0.0000000000000000000, -1.000000000000000000 ) ) ;
#65 = ORIENTED_EDGE ( 'NONE', *, *, #74, .T. ) ;
#66 = DIRECTION ( 'NONE',  ( 1.000000000000000000, -0.0000000000000000000, -0.0000000000000000000 ) ) ;
#67 = DIRECTION ( 'NONE',  ( 1.000000000000000000, -0.0000000000000000000, -0.0000000000000000000 ) ) ;
#68 = EDGE_CURVE ( 'NONE', #195, #189, #199, .T. ) ;
#69 = APPROVAL_PERSON_ORGANIZATION ( #162, #191, #23 ) ;
#70 = PERSON_AND_ORGANIZATION_ROLE ( 'design_supplier' ) ;
#71 = AXIS2_PLACEMENT_3D ( 'NONE', #155, #180, #63 ) ;
#72 = ORIENTED_EDGE ( 'NONE', *, *, #172, .T. ) ;
#73 = APPROVAL_STATUS ( 'not_yet_approved' ) ;
#74 = EDGE_CURVE ( 'NONE', #29, #128, #209, .T. ) ;
#75 = CALENDAR_DATE ( 2020, 4, 11 ) ;
#76 = VERTEX_POINT ( 'NONE', #126 ) ;
#77 = PLANE ( 'NONE',  #141 ) ;
#78 = DIRECTION ( 'NONE',  ( 1.000000000000000000, 0.0000000000000000000, 0.0000000000000000000 ) ) ;
#79 = LOCAL_TIME ( 8, 43, 21.00000000000000000, #229 ) ;
#80 = EDGE_CURVE ( 'NONE', #145, #76, #265, .T. ) ;
#81 = PRODUCT_DEFINITION ( 'UNKNOWN', '', #26, #208 ) ;
#82 = ADVANCED_FACE ( 'NONE', ( #37 ), #49, .T. ) ;
#83 = DIRECTION ( 'NONE',  ( 1.000000000000000000, 0.0000000000000000000, 0.0000000000000000000 ) ) ;
#84 = CARTESIAN_POINT ( 'NONE',  ( -0.9499999999999968470, 0.0000000000000000000, 0.0000000000000000000 ) ) ;
#85 = CARTESIAN_POINT ( 'NONE',  ( 1.000000000000000000, 0.0000000000000000000, 12.50000000000000000 ) ) ;
#86 = DIRECTION ( 'NONE',  ( -1.000000000000000000, -0.0000000000000000000, -0.0000000000000000000 ) ) ;
#87 = EDGE_CURVE ( 'NONE', #189, #29, #100, .T. ) ;
#88 = CARTESIAN_POINT ( 'NONE',  ( -1.000000000000000000, 0.0000000000000000000, 0.0000000000000000000 ) ) ;
#89 = DATE_AND_TIME ( #211, #47 ) ;
#90 = ORIENTED_EDGE ( 'NONE', *, *, #27, .T. ) ;
#91 = VECTOR ( 'NONE', #114, 1000.000000000000000 ) ;
#92 = CC_DESIGN_PERSON_AND_ORGANIZATION_ASSIGNMENT ( #152, #70, ( #26 ) ) ;
#93 = ADVANCED_FACE ( 'NONE', ( #30 ), #51, .T. ) ;
#94 =( NAMED_UNIT ( * ) SI_UNIT ( $, .STERADIAN. ) SOLID_ANGLE_UNIT ( ) );
#95 = LINE ( 'NONE', #129, #274 ) ;
#96 = ORGANIZATION ( 'UNSPECIFIED', 'UNSPECIFIED', '' ) ;
#97 = ORIENTED_EDGE ( 'NONE', *, *, #157, .F. ) ;
#98 = AXIS2_PLACEMENT_3D ( 'NONE', #40, #226, #123 ) ;
#99 = CONICAL_SURFACE ( 'NONE', #58, 12.50000000000000000, 0.7853981633974309595 ) ;
#100 = LINE ( 'NONE', #255, #91 ) ;
#101 = AXIS2_PLACEMENT_3D ( 'NONE', #134, #25, #22 ) ;
#102 = FACE_OUTER_BOUND ( 'NONE', #201, .T. ) ;
#103 = CALENDAR_DATE ( 2020, 4, 11 ) ;
#104 = EDGE_LOOP ( 'NONE', ( #183, #175, #262, #169 ) ) ;
#105 = EDGE_LOOP ( 'NONE', ( #212, #207, #72, #97 ) ) ;
#106 = DIRECTION ( 'NONE',  ( 0.0000000000000000000, 0.0000000000000000000, 1.000000000000000000 ) ) ;
#107 = CIRCLE ( 'NONE', #239, 12.44999999999999929 ) ;
#108 = FACE_OUTER_BOUND ( 'NONE', #105, .T. ) ;
#109 = CARTESIAN_POINT ( 'NONE',  ( 1.000000000000000000, 0.0000000000000000000, 12.45000000000000284 ) ) ;
#110 = CIRCLE ( 'NONE', #55, 12.45000000000000284 ) ;
#111 = DIRECTION ( 'NONE',  ( -1.000000000000000000, -0.0000000000000000000, -0.0000000000000000000 ) ) ;
#112 = VERTEX_POINT ( 'NONE', #179 ) ;
#113 = CARTESIAN_POINT ( 'NONE',  ( 1.000000000000000000, 1.524685264938455237E-15, -12.45000000000000284 ) ) ;
#114 = DIRECTION ( 'NONE',  ( -1.000000000000000000, -0.0000000000000000000, -0.0000000000000000000 ) ) ;
#115 = CC_DESIGN_APPROVAL ( #217, ( #203 ) ) ;
#116 = CC_DESIGN_PERSON_AND_ORGANIZATION_ASSIGNMENT ( #218, #184, ( #264 ) ) ;
#117 = CC_DESIGN_PERSON_AND_ORGANIZATION_ASSIGNMENT ( #197, #266, ( #203 ) ) ;
#118 = DATE_TIME_ROLE ( 'classification_date' ) ;
#119 = AXIS2_PLACEMENT_3D ( 'NONE', #142, #146, #194 ) ;
#120 = DATE_AND_TIME ( #125, #79 ) ;
#121 = DATE_AND_TIME ( #11, #186 ) ;
#122 = PRODUCT_DEFINITION_SHAPE ( 'NONE', 'NONE',  #81 ) ;
#123 = DIRECTION ( 'NONE',  ( 0.0000000000000000000, 0.0000000000000000000, 1.000000000000000000 ) ) ;
#124 = AXIS2_PLACEMENT_3D ( 'NONE', #149, #6, #215 ) ;
#125 = CALENDAR_DATE ( 2020, 4, 11 ) ;
#126 = CARTESIAN_POINT ( 'NONE',  ( -1.000000000000000000, 1.527746881936322985E-15, 12.44999999999999929 ) ) ;
#127 = ORIENTED_EDGE ( 'NONE', *, *, #10, .T. ) ;
#128 = VERTEX_POINT ( 'NONE', #174 ) ;
#129 = CARTESIAN_POINT ( 'NONE',  ( -0.9499999999999968470, 0.0000000000000000000, -12.50000000000000000 ) ) ;
#130 = CARTESIAN_POINT ( 'NONE',  ( 1.000000000000000000, 0.0000000000000000000, 0.0000000000000000000 ) ) ;
#131 = DIRECTION ( 'NONE',  ( -1.000000000000000000, -0.0000000000000000000, -0.0000000000000000000 ) ) ;
#132 = CARTESIAN_POINT ( 'NONE',  ( -0.9499999999999968470, 0.0000000000000000000, 0.0000000000000000000 ) ) ;
#133 = PERSON_AND_ORGANIZATION ( #46, #96 ) ;
#134 = CARTESIAN_POINT ( 'NONE',  ( 0.0000000000000000000, 0.0000000000000000000, 0.0000000000000000000 ) ) ;
#135 = ADVANCED_FACE ( 'NONE', ( #140 ), #252, .T. ) ;
#136 = CC_DESIGN_SECURITY_CLASSIFICATION ( #203, ( #26 ) ) ;
#137 = APPROVAL_PERSON_ORGANIZATION ( #28, #217, #235 ) ;
#138 = EDGE_CURVE ( 'NONE', #12, #189, #221, .T. ) ;
#139 = CC_DESIGN_APPROVAL ( #2, ( #81 ) ) ;
#140 = FACE_OUTER_BOUND ( 'NONE', #57, .T. ) ;
#141 = AXIS2_PLACEMENT_3D ( 'NONE', #148, #78, #230 ) ;
#142 = CARTESIAN_POINT ( 'NONE',  ( 0.9500000000000072831, 0.0000000000000000000, 0.0000000000000000000 ) ) ;
#143 = ORIENTED_EDGE ( 'NONE', *, *, #205, .F. ) ;
#144 = COORDINATED_UNIVERSAL_TIME_OFFSET ( 5, 0, .BEHIND. ) ;
#145 = VERTEX_POINT ( 'NONE', #41 ) ;
#146 = DIRECTION ( 'NONE',  ( -1.000000000000000000, 0.0000000000000000000, 0.0000000000000000000 ) ) ;
#147 = FACE_OUTER_BOUND ( 'NONE', #34, .T. ) ;
#148 = CARTESIAN_POINT ( 'NONE',  ( -1.000000000000000000, 0.0000000000000000000, 0.0000000000000000000 ) ) ;
#149 = CARTESIAN_POINT ( 'NONE',  ( -0.9499999999999968470, 0.0000000000000000000, 0.0000000000000000000 ) ) ;
#150 = CARTESIAN_POINT ( 'NONE',  ( 1.000000000000000000, 0.0000000000000000000, 0.0000000000000000000 ) ) ;
#151 = FACE_OUTER_BOUND ( 'NONE', #56, .T. ) ;
#152 = PERSON_AND_ORGANIZATION ( #46, #96 ) ;
#153 = CLOSED_SHELL ( 'NONE', ( #173, #61, #135, #38, #82, #15, #93, #171 ) ) ;
#154 = ORIENTED_EDGE ( 'NONE', *, *, #275, .T. ) ;
#155 = CARTESIAN_POINT ( 'NONE',  ( 1.000000000000000000, 0.0000000000000000000, 0.0000000000000000000 ) ) ;
#156 = CIRCLE ( 'NONE', #71, 12.45000000000000284 ) ;
#157 = EDGE_CURVE ( 'NONE', #128, #29, #272, .T. ) ;
#158 = CONICAL_SURFACE ( 'NONE', #163, 12.45000000000000284, 0.7853981633975003485 ) ;
#159 = PERSON_AND_ORGANIZATION_ROLE ( 'creator' ) ;
#160 = DATE_TIME_ROLE ( 'creation_date' ) ;
#161 = CYLINDRICAL_SURFACE ( 'NONE', #98, 12.50000000000000000 ) ;
#162 = PERSON_AND_ORGANIZATION ( #46, #96 ) ;
#163 = AXIS2_PLACEMENT_3D ( 'NONE', #13, #228, #106 ) ;
#164 = ORIENTED_EDGE ( 'NONE', *, *, #157, .T. ) ;
#165 = ORIENTED_EDGE ( 'NONE', *, *, #275, .F. ) ;
#166 = VECTOR ( 'NONE', #258, 1000.000000000000000 ) ;
#167 = CC_DESIGN_APPROVAL ( #191, ( #26 ) ) ;
#168 = LINE ( 'NONE', #251, #32 ) ;
#169 = ORIENTED_EDGE ( 'NONE', *, *, #35, .F. ) ;
#170 = CARTESIAN_POINT ( 'NONE',  ( 0.9500000000000072831, 0.0000000000000000000, 0.0000000000000000000 ) ) ;
#171 = ADVANCED_FACE ( 'NONE', ( #108 ), #185, .T. ) ;
#172 = EDGE_CURVE ( 'NONE', #145, #29, #95, .T. ) ;
#173 = ADVANCED_FACE ( 'NONE', ( #147 ), #99, .T. ) ;
#174 = CARTESIAN_POINT ( 'NONE',  ( -0.9499999999999968470, 0.0000000000000000000, 12.50000000000000000 ) ) ;
#175 = ORIENTED_EDGE ( 'NONE', *, *, #187, .F. ) ;
#176 = CARTESIAN_POINT ( 'NONE',  ( -0.9499999999999968470, 0.0000000000000000000, 0.0000000000000000000 ) ) ;
#177 = DIRECTION ( 'NONE',  ( 0.0000000000000000000, 0.0000000000000000000, -1.000000000000000000 ) ) ;
#178 = AXIS2_PLACEMENT_3D ( 'NONE', #132, #42, #1 ) ;
#179 = CARTESIAN_POINT ( 'NONE',  ( 1.000000000000000000, 0.0000000000000000000, 12.45000000000000284 ) ) ;
#180 = DIRECTION ( 'NONE',  ( 1.000000000000000000, 0.0000000000000000000, 0.0000000000000000000 ) ) ;
#181 = COORDINATED_UNIVERSAL_TIME_OFFSET ( 5, 0, .BEHIND. ) ;
#182 = SECURITY_CLASSIFICATION_LEVEL ( 'unclassified' ) ;
#183 = ORIENTED_EDGE ( 'NONE', *, *, #138, .F. ) ;
#184 = PERSON_AND_ORGANIZATION_ROLE ( 'design_owner' ) ;
#185 = CONICAL_SURFACE ( 'NONE', #44, 12.50000000000000000, 0.7853981633974309595 ) ;
#186 = LOCAL_TIME ( 8, 43, 21.00000000000000000, #181 ) ;
#187 = EDGE_CURVE ( 'NONE', #112, #12, #156, .T. ) ;
#188 = CC_DESIGN_PERSON_AND_ORGANIZATION_ASSIGNMENT ( #20, #50, ( #81 ) ) ;
#189 = VERTEX_POINT ( 'NONE', #3 ) ;
#190 = ORIENTED_EDGE ( 'NONE', *, *, #68, .F. ) ;
#191 = APPROVAL ( #222, 'UNSPECIFIED' ) ;
#192 = AXIS2_PLACEMENT_3D ( 'NONE', #88, #131, #177 ) ;
#193 = CARTESIAN_POINT ( 'NONE',  ( -0.9499999999999968470, 1.530808498934191521E-15, -12.50000000000000000 ) ) ;
#194 = DIRECTION ( 'NONE',  ( 0.0000000000000000000, 0.0000000000000000000, -1.000000000000000000 ) ) ;
#195 = VERTEX_POINT ( 'NONE', #216 ) ;
#196 = CC_DESIGN_PERSON_AND_ORGANIZATION_ASSIGNMENT ( #234, #159, ( #26 ) ) ;
#197 = PERSON_AND_ORGANIZATION ( #46, #96 ) ;
#198 = ORIENTED_EDGE ( 'NONE', *, *, #187, .T. ) ;
#199 = CIRCLE ( 'NONE', #220, 12.50000000000000000 ) ;
#200 = DIRECTION ( 'NONE',  ( 0.0000000000000000000, 0.0000000000000000000, -1.000000000000000000 ) ) ;
#201 = EDGE_LOOP ( 'NONE', ( #48, #24, #190, #143 ) ) ;
#202 = APPROVAL_ROLE ( '' ) ;
#203 = SECURITY_CLASSIFICATION ( '', '', #182 ) ;
#204 = ORIENTED_EDGE ( 'NONE', *, *, #74, .F. ) ;
#205 = EDGE_CURVE ( 'NONE', #112, #195, #5, .T. ) ;
#206 = SHAPE_DEFINITION_REPRESENTATION ( #122, #18 ) ;
#207 = ORIENTED_EDGE ( 'NONE', *, *, #80, .F. ) ;
#208 = DESIGN_CONTEXT ( 'detailed design', #54, 'design' ) ;
#209 = CIRCLE ( 'NONE', #178, 12.50000000000000000 ) ;
#210 = CIRCLE ( 'NONE', #119, 12.50000000000000000 ) ;
#211 = CALENDAR_DATE ( 2020, 4, 11 ) ;
#212 = ORIENTED_EDGE ( 'NONE', *, *, #27, .F. ) ;
#213 = VECTOR ( 'NONE', #86, 1000.000000000000000 ) ;
#214 = CARTESIAN_POINT ( 'NONE',  ( 1.000000000000000000, 0.0000000000000000000, 0.0000000000000000000 ) ) ;
#215 = DIRECTION ( 'NONE',  ( 0.0000000000000000000, 0.0000000000000000000, -1.000000000000000000 ) ) ;
#216 = CARTESIAN_POINT ( 'NONE',  ( 0.9500000000000072831, 0.0000000000000000000, 12.50000000000000000 ) ) ;
#217 = APPROVAL ( #240, 'UNSPECIFIED' ) ;
#218 = PERSON_AND_ORGANIZATION ( #46, #96 ) ;
#219 = DIRECTION ( 'NONE',  ( 0.0000000000000000000, 0.0000000000000000000, -1.000000000000000000 ) ) ;
#220 = AXIS2_PLACEMENT_3D ( 'NONE', #170, #39, #248 ) ;
#221 = LINE ( 'NONE', #113, #166 ) ;
#222 = APPROVAL_STATUS ( 'not_yet_approved' ) ;
#223 = ORIENTED_EDGE ( 'NONE', *, *, #35, .T. ) ;
#224 = LOCAL_TIME ( 8, 43, 21.00000000000000000, #144 ) ;
#225 = EDGE_LOOP ( 'NONE', ( #198, #127 ) ) ;
#226 = DIRECTION ( 'NONE',  ( -1.000000000000000000, -0.0000000000000000000, -0.0000000000000000000 ) ) ;
#227 = AXIS2_PLACEMENT_3D ( 'NONE', #150, #16, #17 ) ;
#228 = DIRECTION ( 'NONE',  ( -1.000000000000000000, 0.0000000000000000000, 0.0000000000000000000 ) ) ;
#229 = COORDINATED_UNIVERSAL_TIME_OFFSET ( 5, 0, .BEHIND. ) ;
#230 = DIRECTION ( 'NONE',  ( 0.0000000000000000000, 0.0000000000000000000, -1.000000000000000000 ) ) ;
#231 = DIRECTION ( 'NONE',  ( 0.0000000000000000000, 0.0000000000000000000, -1.000000000000000000 ) ) ;
#232 = CARTESIAN_POINT ( 'NONE',  ( -1.000000000000000000, 0.0000000000000000000, 0.0000000000000000000 ) ) ;
#233 = DIRECTION ( 'NONE',  ( -0.7071067811865107133, 0.0000000000000000000, 0.7071067811865843211 ) ) ;
#234 = PERSON_AND_ORGANIZATION ( #46, #96 ) ;
#235 = APPROVAL_ROLE ( '' ) ;
#236 = CC_DESIGN_DATE_AND_TIME_ASSIGNMENT ( #62, #160, ( #81 ) ) ;
#237 = MECHANICAL_CONTEXT ( 'NONE', #53, 'mechanical' ) ;
#238 = ORIENTED_EDGE ( 'NONE', *, *, #68, .T. ) ;
#239 = AXIS2_PLACEMENT_3D ( 'NONE', #232, #111, #200 ) ;
#240 = APPROVAL_STATUS ( 'not_yet_approved' ) ;
#241 = APPLICATION_PROTOCOL_DEFINITION ( 'international standard', 'config_control_design', 1994, #53 ) ;
#242 = EDGE_CURVE ( 'NONE', #76, #145, #107, .T. ) ;
#243 = APPROVAL_DATE_TIME ( #14, #2 ) ;
#244 = ORIENTED_EDGE ( 'NONE', *, *, #242, .T. ) ;
#245 = PRODUCT_RELATED_PRODUCT_CATEGORY ( 'detail', '', ( #264 ) ) ;
#246 = DIRECTION ( 'NONE',  ( 0.0000000000000000000, 0.0000000000000000000, -1.000000000000000000 ) ) ;
#247 = LOCAL_TIME ( 8, 43, 21.00000000000000000, #259 ) ;
#248 = DIRECTION ( 'NONE',  ( 0.0000000000000000000, 0.0000000000000000000, -1.000000000000000000 ) ) ;
#249 = EDGE_LOOP ( 'NONE', ( #253, #244 ) ) ;
#250 = CARTESIAN_POINT ( 'NONE',  ( 1.000000000000000000, 1.527746881936323379E-15, -12.45000000000000284 ) ) ;
#251 = CARTESIAN_POINT ( 'NONE',  ( -0.9499999999999968470, 1.530808498934191521E-15, 12.50000000000000000 ) ) ;
#252 = CYLINDRICAL_SURFACE ( 'NONE', #227, 12.50000000000000000 ) ;
#253 = ORIENTED_EDGE ( 'NONE', *, *, #80, .T. ) ;
#254 = DIRECTION ( 'NONE',  ( 0.7071067811865597852, 8.659560562354782482E-17, 0.7071067811865352493 ) ) ;
#255 = CARTESIAN_POINT ( 'NONE',  ( 1.000000000000000000, 1.530808498934191521E-15, -12.50000000000000000 ) ) ;
#256 = DIRECTION ( 'NONE',  ( 0.0000000000000000000, 0.0000000000000000000, 1.000000000000000000 ) ) ;
#257 = ORIENTED_EDGE ( 'NONE', *, *, #87, .T. ) ;
#258 = DIRECTION ( 'NONE',  ( -0.7071067811865107133, 8.659560562355383988E-17, -0.7071067811865843211 ) ) ;
#259 = COORDINATED_UNIVERSAL_TIME_OFFSET ( 5, 0, .BEHIND. ) ;
#260 = AXIS2_PLACEMENT_3D ( 'NONE', #214, #4, #64 ) ;
#261 = ORIENTED_EDGE ( 'NONE', *, *, #87, .F. ) ;
#262 = ORIENTED_EDGE ( 'NONE', *, *, #205, .T. ) ;
#263 = DIRECTION ( 'NONE',  ( 0.7071067811865597852, 0.0000000000000000000, -0.7071067811865352493 ) ) ;
#264 = PRODUCT ( 'Web Model 11877_13354', 'Web Model 11877_13354', '', ( #237 ) ) ;
#265 = CIRCLE ( 'NONE', #192, 12.44999999999999929 ) ;
#266 = PERSON_AND_ORGANIZATION_ROLE ( 'classification_officer' ) ;
#267 = MANIFOLD_SOLID_BREP ( 'Chamfer1', #153 ) ;
#268 =( LENGTH_UNIT ( ) NAMED_UNIT ( * ) SI_UNIT ( .MILLI., .METRE. ) );
#269 = FACE_OUTER_BOUND ( 'NONE', #249, .T. ) ;
#270 = COORDINATED_UNIVERSAL_TIME_OFFSET ( 5, 0, .BEHIND. ) ;
#271 = LINE ( 'NONE', #85, #213 ) ;
#272 = CIRCLE ( 'NONE', #124, 12.50000000000000000 ) ;
#273 =( GEOMETRIC_REPRESENTATION_CONTEXT ( 3 ) GLOBAL_UNCERTAINTY_ASSIGNED_CONTEXT ( ( #43 ) ) GLOBAL_UNIT_ASSIGNED_CONTEXT ( ( #268, #52, #94 ) ) REPRESENTATION_CONTEXT ( 'NONE', 'WORKASPACE' ) );
#274 = VECTOR ( 'NONE', #263, 1000.000000000000000 ) ;
#275 = EDGE_CURVE ( 'NONE', #195, #128, #271, .T. ) ;
ENDSEC;
END-ISO-10303-21;
