ISO-10303-21;
HEADER;
FILE_DESCRIPTION (( 'STEP AP203' ),
    '1' );
FILE_NAME ('Web Model 88232_88233.step',
    '2019-05-20T15:26:35',
    ( '' ),
    ( '' ),
    'SwSTEP 2.0',
    'SolidWorks 2018',
    '' );
FILE_SCHEMA (( 'CONFIG_CONTROL_DESIGN' ));
ENDSEC;

DATA;
#1 = PLANE ( 'NONE',  #33 ) ;
#2 = SHAPE_DEFINITION_REPRESENTATION ( #128, #319 ) ;
#3 = FACE_OUTER_BOUND ( 'NONE', #200, .T. ) ;
#4 = PRODUCT_DEFINITION ( 'UNKNOWN', '', #59, #52 ) ;
#5 = ADVANCED_FACE ( 'NONE', ( #142 ), #268, .F. ) ;
#6 = CARTESIAN_POINT ( 'NONE',  ( -6.349999999999998757, 6.349999999999998757, -6.349999999999999645 ) ) ;
#7 = PLANE ( 'NONE',  #243 ) ;
#8 = LINE ( 'NONE', #182, #216 ) ;
#9 = APPLICATION_PROTOCOL_DEFINITION ( 'international standard', 'config_control_design', 1994, #36 ) ;
#10 = CARTESIAN_POINT ( 'NONE',  ( -0.0000000000000000000, 0.0000000000000000000, -6.349999999999999645 ) ) ;
#11 = DIRECTION ( 'NONE',  ( -0.0000000000000000000, -0.0000000000000000000, -1.000000000000000000 ) ) ;
#12 = CC_DESIGN_PERSON_AND_ORGANIZATION_ASSIGNMENT ( #114, #86, ( #262 ) ) ;
#13 = VERTEX_POINT ( 'NONE', #101 ) ;
#14 = DATE_TIME_ROLE ( 'classification_date' ) ;
#15 = APPROVAL_ROLE ( '' ) ;
#16 = VECTOR ( 'NONE', #77, 1000.000000000000000 ) ;
#17 = CC_DESIGN_PERSON_AND_ORGANIZATION_ASSIGNMENT ( #205, #285, ( #59 ) ) ;
#18 = LINE ( 'NONE', #157, #199 ) ;
#19 = VECTOR ( 'NONE', #228, 1000.000000000000000 ) ;
#20 = ORIENTED_EDGE ( 'NONE', *, *, #315, .F. ) ;
#21 = AXIS2_PLACEMENT_3D ( 'NONE', #309, #155, #184 ) ;
#22 = PERSON_AND_ORGANIZATION ( #241, #111 ) ;
#23 = ORIENTED_EDGE ( 'NONE', *, *, #256, .T. ) ;
#24 = PLANE ( 'NONE',  #94 ) ;
#25 = DIRECTION ( 'NONE',  ( 0.0000000000000000000, 1.000000000000000000, -0.0000000000000000000 ) ) ;
#26 = CALENDAR_DATE ( 2019, 20, 5 ) ;
#27 = EDGE_CURVE ( 'NONE', #95, #164, #126, .T. ) ;
#28 = VERTEX_POINT ( 'NONE', #195 ) ;
#29 = DIRECTION ( 'NONE',  ( -0.0000000000000000000, -0.0000000000000000000, -1.000000000000000000 ) ) ;
#30 = DIRECTION ( 'NONE',  ( 1.000000000000000000, 0.0000000000000000000, 0.0000000000000000000 ) ) ;
#31 = VERTEX_POINT ( 'NONE', #229 ) ;
#32 = CARTESIAN_POINT ( 'NONE',  ( -6.349999999999998757, 6.349999999999998757, 6.349999999999999645 ) ) ;
#33 = AXIS2_PLACEMENT_3D ( 'NONE', #250, #197, #176 ) ;
#34 = DIRECTION ( 'NONE',  ( -1.000000000000000000, 0.0000000000000000000, 0.0000000000000000000 ) ) ;
#35 = VECTOR ( 'NONE', #150, 1000.000000000000114 ) ;
#36 = APPLICATION_CONTEXT ( 'configuration controlled 3d designs of mechanical parts and assemblies' ) ;
#37 = APPROVAL_STATUS ( 'not_yet_approved' ) ;
#38 = AXIS2_PLACEMENT_3D ( 'NONE', #321, #168, #51 ) ;
#39 = ORIENTED_EDGE ( 'NONE', *, *, #292, .F. ) ;
#40 = CC_DESIGN_APPROVAL ( #79, ( #4 ) ) ;
#41 = APPROVAL_STATUS ( 'not_yet_approved' ) ;
#42 = PERSON_AND_ORGANIZATION ( #241, #111 ) ;
#43 = ADVANCED_FACE ( 'NONE', ( #220 ), #83, .T. ) ;
#44 = LINE ( 'NONE', #32, #235 ) ;
#45 = VECTOR ( 'NONE', #99, 1000.000000000000000 ) ;
#46 = COORDINATED_UNIVERSAL_TIME_OFFSET ( 5, 0, .BEHIND. ) ;
#47 = VERTEX_POINT ( 'NONE', #255 ) ;
#48 = ORIENTED_EDGE ( 'NONE', *, *, #66, .T. ) ;
#49 = PERSON_AND_ORGANIZATION ( #241, #111 ) ;
#50 = ORIENTED_EDGE ( 'NONE', *, *, #110, .T. ) ;
#51 = DIRECTION ( 'NONE',  ( 0.0000000000000000000, -0.0000000000000000000, 1.000000000000000000 ) ) ;
#52 = DESIGN_CONTEXT ( 'detailed design', #310, 'design' ) ;
#53 = CARTESIAN_POINT ( 'NONE',  ( 0.0000000000000000000, 0.0000000000000000000, 6.349999999999999645 ) ) ;
#54 = CARTESIAN_POINT ( 'NONE',  ( 0.0000000000000000000, 0.0000000000000000000, 6.349999999999999645 ) ) ;
#55 = LOCAL_TIME ( 11, 26, 35.00000000000000000, #46 ) ;
#56 = ORIENTED_EDGE ( 'NONE', *, *, #293, .T. ) ;
#57 = PLANE ( 'NONE',  #305 ) ;
#58 = DIRECTION ( 'NONE',  ( 1.000000000000000000, 0.0000000000000000000, 0.0000000000000000000 ) ) ;
#59 = PRODUCT_DEFINITION_FORMATION_WITH_SPECIFIED_SOURCE ( 'ANY', '', #262, .NOT_KNOWN. ) ;
#60 =( NAMED_UNIT ( * ) PLANE_ANGLE_UNIT ( ) SI_UNIT ( $, .RADIAN. ) );
#61 = COORDINATED_UNIVERSAL_TIME_OFFSET ( 5, 0, .BEHIND. ) ;
#62 = MECHANICAL_CONTEXT ( 'NONE', #36, 'mechanical' ) ;
#63 = ORIENTED_EDGE ( 'NONE', *, *, #211, .F. ) ;
#64 = CARTESIAN_POINT ( 'NONE',  ( 6.349999999999999645, 6.349999999999999645, 6.349999999999999645 ) ) ;
#65 = CARTESIAN_POINT ( 'NONE',  ( -6.349999999999998757, 6.349999999999998757, 6.349999999999999645 ) ) ;
#66 = EDGE_CURVE ( 'NONE', #28, #278, #175, .T. ) ;
#67 = PERSON_AND_ORGANIZATION_ROLE ( 'design_supplier' ) ;
#68 = EDGE_LOOP ( 'NONE', ( #214, #194, #217 ) ) ;
#69 = DATE_TIME_ROLE ( 'creation_date' ) ;
#70 = LOCAL_TIME ( 11, 26, 35.00000000000000000, #119 ) ;
#71 = CC_DESIGN_APPROVAL ( #154, ( #183 ) ) ;
#72 = ORIENTED_EDGE ( 'NONE', *, *, #123, .T. ) ;
#73 = EDGE_LOOP ( 'NONE', ( #291, #289, #318, #239 ) ) ;
#74 = CC_DESIGN_APPROVAL ( #163, ( #59 ) ) ;
#75 = APPROVAL_PERSON_ORGANIZATION ( #49, #79, #135 ) ;
#76 = CARTESIAN_POINT ( 'NONE',  ( 6.349999999999998757, -6.349999999999998757, 6.349999999999999645 ) ) ;
#77 = DIRECTION ( 'NONE',  ( -0.0000000000000000000, -0.0000000000000000000, -1.000000000000000000 ) ) ;
#78 = UNCERTAINTY_MEASURE_WITH_UNIT (LENGTH_MEASURE( 1.000000000000000082E-05 ), #129, 'distance_accuracy_value', 'NONE');
#79 = APPROVAL ( #41, 'UNSPECIFIED' ) ;
#80 = ORIENTED_EDGE ( 'NONE', *, *, #292, .T. ) ;
#81 = DIRECTION ( 'NONE',  ( 1.000000000000000000, 0.0000000000000000000, 0.0000000000000000000 ) ) ;
#82 = VERTEX_POINT ( 'NONE', #6 ) ;
#83 = PLANE ( 'NONE',  #277 ) ;
#84 = PLANE ( 'NONE',  #21 ) ;
#85 = FACE_OUTER_BOUND ( 'NONE', #96, .T. ) ;
#86 = PERSON_AND_ORGANIZATION_ROLE ( 'design_owner' ) ;
#87 = PRODUCT_RELATED_PRODUCT_CATEGORY ( 'detail', '', ( #262 ) ) ;
#88 = DATE_AND_TIME ( #124, #266 ) ;
#89 = ORIENTED_EDGE ( 'NONE', *, *, #189, .F. ) ;
#90 = LINE ( 'NONE', #145, #16 ) ;
#91 = CC_DESIGN_PERSON_AND_ORGANIZATION_ASSIGNMENT ( #281, #67, ( #59 ) ) ;
#92 = APPLICATION_PROTOCOL_DEFINITION ( 'international standard', 'config_control_design', 1994, #310 ) ;
#93 = EDGE_LOOP ( 'NONE', ( #89, #39, #23, #115 ) ) ;
#94 = AXIS2_PLACEMENT_3D ( 'NONE', #54, #225, #30 ) ;
#95 = VERTEX_POINT ( 'NONE', #98 ) ;
#96 = EDGE_LOOP ( 'NONE', ( #188, #72, #63 ) ) ;
#97 = LINE ( 'NONE', #254, #117 ) ;
#98 = CARTESIAN_POINT ( 'NONE',  ( 6.349999999999998757, -6.349999999999998757, -6.349999999999999645 ) ) ;
#99 = DIRECTION ( 'NONE',  ( -0.0000000000000000000, -0.0000000000000000000, -1.000000000000000000 ) ) ;
#100 = ADVANCED_FACE ( 'NONE', ( #3 ), #1, .F. ) ;
#101 = CARTESIAN_POINT ( 'NONE',  ( 6.349999999999999645, 6.349999999999999645, 6.349999999999999645 ) ) ;
#102 = ORIENTED_EDGE ( 'NONE', *, *, #171, .F. ) ;
#103 = PLANE ( 'NONE',  #167 ) ;
#104 = CC_DESIGN_PERSON_AND_ORGANIZATION_ASSIGNMENT ( #22, #263, ( #183 ) ) ;
#105 = MANIFOLD_SOLID_BREP ( 'Boss-Extrude3', #224 ) ;
#106 = CARTESIAN_POINT ( 'NONE',  ( -6.349999999999998757, 6.349999999999998757, -6.349999999999999645 ) ) ;
#107 = APPROVAL_PERSON_ORGANIZATION ( #42, #154, #15 ) ;
#108 = LINE ( 'NONE', #296, #45 ) ;
#109 = DIRECTION ( 'NONE',  ( 0.7071067811865475727, 0.7071067811865475727, -0.0000000000000000000 ) ) ;
#110 = EDGE_CURVE ( 'NONE', #295, #249, #272, .T. ) ;
#111 = ORGANIZATION ( 'UNSPECIFIED', 'UNSPECIFIED', '' ) ;
#112 = LINE ( 'NONE', #223, #170 ) ;
#113 = PERSON_AND_ORGANIZATION_ROLE ( 'creator' ) ;
#114 = PERSON_AND_ORGANIZATION ( #241, #111 ) ;
#115 = ORIENTED_EDGE ( 'NONE', *, *, #251, .T. ) ;
#116 = PERSON_AND_ORGANIZATION ( #241, #111 ) ;
#117 = VECTOR ( 'NONE', #173, 1000.000000000000000 ) ;
#118 = CC_DESIGN_DATE_AND_TIME_ASSIGNMENT ( #234, #14, ( #183 ) ) ;
#119 = COORDINATED_UNIVERSAL_TIME_OFFSET ( 5, 0, .BEHIND. ) ;
#120 = ORIENTED_EDGE ( 'NONE', *, *, #275, .T. ) ;
#121 = ADVANCED_FACE ( 'NONE', ( #261 ), #274, .F. ) ;
#122 = CARTESIAN_POINT ( 'NONE',  ( 6.349999999999998757, -6.349999999999998757, 6.349999999999999645 ) ) ;
#123 = EDGE_CURVE ( 'NONE', #31, #295, #253, .T. ) ;
#124 = CALENDAR_DATE ( 2019, 20, 5 ) ;
#125 = ADVANCED_FACE ( 'NONE', ( #85 ), #24, .T. ) ;
#126 = LINE ( 'NONE', #276, #245 ) ;
#127 = DIRECTION ( 'NONE',  ( 0.0000000000000000000, 0.0000000000000000000, 1.000000000000000000 ) ) ;
#128 = PRODUCT_DEFINITION_SHAPE ( 'NONE', 'NONE',  #4 ) ;
#129 =( LENGTH_UNIT ( ) NAMED_UNIT ( * ) SI_UNIT ( .MILLI., .METRE. ) );
#130 = LINE ( 'NONE', #236, #316 ) ;
#131 = CARTESIAN_POINT ( 'NONE',  ( 0.0000000000000000000, 0.0000000000000000000, 6.349999999999999645 ) ) ;
#132 = CARTESIAN_POINT ( 'NONE',  ( 6.349999999999998757, -6.349999999999998757, -6.349999999999999645 ) ) ;
#133 = DIRECTION ( 'NONE',  ( 1.000000000000000000, 0.0000000000000000000, 0.0000000000000000000 ) ) ;
#134 = ORIENTED_EDGE ( 'NONE', *, *, #293, .F. ) ;
#135 = APPROVAL_ROLE ( '' ) ;
#136 = APPROVAL_ROLE ( '' ) ;
#137 = EDGE_CURVE ( 'NONE', #31, #28, #284, .T. ) ;
#138 = FACE_OUTER_BOUND ( 'NONE', #68, .T. ) ;
#139 = MANIFOLD_SOLID_BREP ( 'Boss-Extrude2', #213 ) ;
#140 = LINE ( 'NONE', #64, #257 ) ;
#141 = ORIENTED_EDGE ( 'NONE', *, *, #246, .T. ) ;
#142 = FACE_OUTER_BOUND ( 'NONE', #302, .T. ) ;
#143 = VERTEX_POINT ( 'NONE', #76 ) ;
#144 = EDGE_CURVE ( 'NONE', #47, #278, #90, .T. ) ;
#145 = CARTESIAN_POINT ( 'NONE',  ( -6.349999999999998757, 6.349999999999998757, 6.349999999999999645 ) ) ;
#146 = VECTOR ( 'NONE', #178, 1000.000000000000000 ) ;
#147 = EDGE_LOOP ( 'NONE', ( #120, #273, #258, #282 ) ) ;
#148 = CARTESIAN_POINT ( 'NONE',  ( -6.349999999999999645, -6.349999999999999645, 6.349999999999999645 ) ) ;
#149 = DIRECTION ( 'NONE',  ( 0.7071067811865474617, -0.7071067811865474617, 0.0000000000000000000 ) ) ;
#150 = DIRECTION ( 'NONE',  ( 0.7071067811865474617, -0.7071067811865474617, 0.0000000000000000000 ) ) ;
#151 = VECTOR ( 'NONE', #29, 1000.000000000000000 ) ;
#152 = ORIENTED_EDGE ( 'NONE', *, *, #66, .F. ) ;
#153 = CARTESIAN_POINT ( 'NONE',  ( 6.349999999999999645, 0.0000000000000000000, 6.349999999999999645 ) ) ;
#154 = APPROVAL ( #37, 'UNSPECIFIED' ) ;
#155 = DIRECTION ( 'NONE',  ( 0.0000000000000000000, 1.000000000000000000, 0.0000000000000000000 ) ) ;
#156 = LOCAL_TIME ( 11, 26, 35.00000000000000000, #210 ) ;
#157 = CARTESIAN_POINT ( 'NONE',  ( 0.0000000000000000000, -6.349999999999999645, -6.349999999999999645 ) ) ;
#158 = FACE_OUTER_BOUND ( 'NONE', #165, .T. ) ;
#159 = CC_DESIGN_DATE_AND_TIME_ASSIGNMENT ( #306, #69, ( #4 ) ) ;
#160 = SECURITY_CLASSIFICATION_LEVEL ( 'unclassified' ) ;
#161 = ORIENTED_EDGE ( 'NONE', *, *, #137, .F. ) ;
#162 = ORIENTED_EDGE ( 'NONE', *, *, #275, .F. ) ;
#163 = APPROVAL ( #313, 'UNSPECIFIED' ) ;
#164 = VERTEX_POINT ( 'NONE', #172 ) ;
#165 = EDGE_LOOP ( 'NONE', ( #134, #230, #221, #50 ) ) ;
#166 = ADVANCED_FACE ( 'NONE', ( #308 ), #203, .T. ) ;
#167 = AXIS2_PLACEMENT_3D ( 'NONE', #179, #259, #279 ) ;
#168 = DIRECTION ( 'NONE',  ( 0.0000000000000000000, 1.000000000000000000, 0.0000000000000000000 ) ) ;
#169 = LINE ( 'NONE', #202, #146 ) ;
#170 = VECTOR ( 'NONE', #149, 1000.000000000000114 ) ;
#171 = EDGE_CURVE ( 'NONE', #143, #95, #108, .T. ) ;
#172 = CARTESIAN_POINT ( 'NONE',  ( 6.349999999999999645, 6.349999999999999645, -6.349999999999999645 ) ) ;
#173 = DIRECTION ( 'NONE',  ( 1.000000000000000000, 0.0000000000000000000, 0.0000000000000000000 ) ) ;
#174 = PERSON_AND_ORGANIZATION ( #241, #111 ) ;
#175 = LINE ( 'NONE', #271, #19 ) ;
#176 = DIRECTION ( 'NONE',  ( 1.000000000000000000, 0.0000000000000000000, 0.0000000000000000000 ) ) ;
#177 = ORIENTED_EDGE ( 'NONE', *, *, #256, .F. ) ;
#178 = DIRECTION ( 'NONE',  ( 0.0000000000000000000, 1.000000000000000000, -0.0000000000000000000 ) ) ;
#179 = CARTESIAN_POINT ( 'NONE',  ( 0.0000000000000000000, 0.0000000000000000000, -6.349999999999999645 ) ) ;
#180 = FACE_OUTER_BOUND ( 'NONE', #93, .T. ) ;
#181 = ORIENTED_EDGE ( 'NONE', *, *, #187, .T. ) ;
#182 = CARTESIAN_POINT ( 'NONE',  ( -6.349999999999999645, 0.0000000000000000000, 6.349999999999999645 ) ) ;
#183 = SECURITY_CLASSIFICATION ( '', '', #160 ) ;
#184 = DIRECTION ( 'NONE',  ( 0.0000000000000000000, -0.0000000000000000000, 1.000000000000000000 ) ) ;
#185 = CALENDAR_DATE ( 2019, 20, 5 ) ;
#186 = VECTOR ( 'NONE', #196, 1000.000000000000000 ) ;
#187 = EDGE_CURVE ( 'NONE', #82, #95, #112, .T. ) ;
#188 = ORIENTED_EDGE ( 'NONE', *, *, #246, .F. ) ;
#189 = EDGE_CURVE ( 'NONE', #82, #164, #97, .T. ) ;
#190 = ADVANCED_FACE ( 'NONE', ( #158 ), #57, .T. ) ;
#191 = LINE ( 'NONE', #131, #35 ) ;
#192 = VECTOR ( 'NONE', #298, 1000.000000000000000 ) ;
#193 = LINE ( 'NONE', #280, #288 ) ;
#194 = ORIENTED_EDGE ( 'NONE', *, *, #189, .T. ) ;
#195 = CARTESIAN_POINT ( 'NONE',  ( -6.349999999999999645, -6.349999999999999645, -6.349999999999999645 ) ) ;
#196 = DIRECTION ( 'NONE',  ( 1.000000000000000000, 0.0000000000000000000, 0.0000000000000000000 ) ) ;
#197 = DIRECTION ( 'NONE',  ( -0.0000000000000000000, 0.0000000000000000000, 1.000000000000000000 ) ) ;
#198 = DIRECTION ( 'NONE',  ( -0.0000000000000000000, 0.0000000000000000000, 1.000000000000000000 ) ) ;
#199 = VECTOR ( 'NONE', #133, 1000.000000000000000 ) ;
#200 = EDGE_LOOP ( 'NONE', ( #48, #56, #162 ) ) ;
#201 = ORIENTED_EDGE ( 'NONE', *, *, #144, .T. ) ;
#202 = CARTESIAN_POINT ( 'NONE',  ( 6.349999999999999645, 0.0000000000000000000, 6.349999999999999645 ) ) ;
#203 = PLANE ( 'NONE',  #297 ) ;
#204 = DIRECTION ( 'NONE',  ( 0.0000000000000000000, 0.0000000000000000000, 1.000000000000000000 ) ) ;
#205 = PERSON_AND_ORGANIZATION ( #241, #111 ) ;
#206 = CC_DESIGN_PERSON_AND_ORGANIZATION_ASSIGNMENT ( #116, #113, ( #4 ) ) ;
#207 = DIRECTION ( 'NONE',  ( 1.000000000000000000, 0.0000000000000000000, 0.0000000000000000000 ) ) ;
#208 = DIRECTION ( 'NONE',  ( 0.0000000000000000000, 1.000000000000000000, -0.0000000000000000000 ) ) ;
#209 = DIRECTION ( 'NONE',  ( 0.7071067811865474617, -0.7071067811865474617, 0.0000000000000000000 ) ) ;
#210 = COORDINATED_UNIVERSAL_TIME_OFFSET ( 5, 0, .BEHIND. ) ;
#211 = EDGE_CURVE ( 'NONE', #47, #295, #130, .T. ) ;
#212 = EDGE_LOOP ( 'NONE', ( #152, #161, #141, #201 ) ) ;
#213 = CLOSED_SHELL ( 'NONE', ( #43, #121, #190, #125, #100 ) ) ;
#214 = ORIENTED_EDGE ( 'NONE', *, *, #187, .F. ) ;
#215 = EDGE_CURVE ( 'NONE', #143, #13, #169, .T. ) ;
#216 = VECTOR ( 'NONE', #208, 1000.000000000000000 ) ;
#217 = ORIENTED_EDGE ( 'NONE', *, *, #27, .F. ) ;
#218 = DIRECTION ( 'NONE',  ( 0.7071067811865475727, 0.7071067811865475727, -0.0000000000000000000 ) ) ;
#219 = LOCAL_TIME ( 11, 26, 35.00000000000000000, #61 ) ;
#220 = FACE_OUTER_BOUND ( 'NONE', #212, .T. ) ;
#221 = ORIENTED_EDGE ( 'NONE', *, *, #211, .T. ) ;
#222 = CC_DESIGN_SECURITY_CLASSIFICATION ( #183, ( #59 ) ) ;
#223 = CARTESIAN_POINT ( 'NONE',  ( -0.0000000000000000000, 0.0000000000000000000, -6.349999999999999645 ) ) ;
#224 = CLOSED_SHELL ( 'NONE', ( #5, #227, #299, #166, #317 ) ) ;
#225 = DIRECTION ( 'NONE',  ( -0.0000000000000000000, 0.0000000000000000000, 1.000000000000000000 ) ) ;
#226 = DIRECTION ( 'NONE',  ( -1.000000000000000000, 0.0000000000000000000, 0.0000000000000000000 ) ) ;
#227 = ADVANCED_FACE ( 'NONE', ( #248 ), #7, .F. ) ;
#228 = DIRECTION ( 'NONE',  ( 0.0000000000000000000, 1.000000000000000000, -0.0000000000000000000 ) ) ;
#229 = CARTESIAN_POINT ( 'NONE',  ( -6.349999999999999645, -6.349999999999999645, 6.349999999999999645 ) ) ;
#230 = ORIENTED_EDGE ( 'NONE', *, *, #144, .F. ) ;
#231 = DIRECTION ( 'NONE',  ( -0.7071067811865474617, 0.7071067811865474617, 0.0000000000000000000 ) ) ;
#232 =( NAMED_UNIT ( * ) SI_UNIT ( $, .STERADIAN. ) SOLID_ANGLE_UNIT ( ) );
#233 = DIRECTION ( 'NONE',  ( 0.0000000000000000000, 0.0000000000000000000, 1.000000000000000000 ) ) ;
#234 = DATE_AND_TIME ( #264, #156 ) ;
#235 = VECTOR ( 'NONE', #11, 1000.000000000000000 ) ;
#236 = CARTESIAN_POINT ( 'NONE',  ( 0.0000000000000000000, 0.0000000000000000000, 6.349999999999999645 ) ) ;
#237 = VERTEX_POINT ( 'NONE', #65 ) ;
#238 = DIRECTION ( 'NONE',  ( -0.0000000000000000000, -0.0000000000000000000, -1.000000000000000000 ) ) ;
#239 = ORIENTED_EDGE ( 'NONE', *, *, #171, .T. ) ;
#240 = ORIENTED_EDGE ( 'NONE', *, *, #215, .T. ) ;
#241 = PERSON ( 'UNSPECIFIED', 'UNSPECIFIED', 'UNSPECIFIED', ('UNSPECIFIED'), ('UNSPECIFIED'), ('UNSPECIFIED') ) ;
#242 = COORDINATED_UNIVERSAL_TIME_OFFSET ( 5, 0, .BEHIND. ) ;
#243 = AXIS2_PLACEMENT_3D ( 'NONE', #153, #34, #204 ) ;
#244 = DATE_AND_TIME ( #26, #70 ) ;
#245 = VECTOR ( 'NONE', #25, 1000.000000000000000 ) ;
#246 = EDGE_CURVE ( 'NONE', #31, #47, #8, .T. ) ;
#247 = CARTESIAN_POINT ( 'NONE',  ( 0.0000000000000000000, 0.0000000000000000000, 6.349999999999999645 ) ) ;
#248 = FACE_OUTER_BOUND ( 'NONE', #73, .T. ) ;
#249 = VERTEX_POINT ( 'NONE', #132 ) ;
#250 = CARTESIAN_POINT ( 'NONE',  ( 0.0000000000000000000, 0.0000000000000000000, -6.349999999999999645 ) ) ;
#251 = EDGE_CURVE ( 'NONE', #13, #164, #140, .T. ) ;
#252 = VECTOR ( 'NONE', #307, 1000.000000000000114 ) ;
#253 = LINE ( 'NONE', #303, #186 ) ;
#254 = CARTESIAN_POINT ( 'NONE',  ( -0.0000000000000000000, 6.349999999999999645, -6.349999999999999645 ) ) ;
#255 = CARTESIAN_POINT ( 'NONE',  ( -6.349999999999998757, 6.349999999999998757, 6.349999999999999645 ) ) ;
#256 = EDGE_CURVE ( 'NONE', #237, #13, #193, .T. ) ;
#257 = VECTOR ( 'NONE', #238, 1000.000000000000000 ) ;
#258 = ORIENTED_EDGE ( 'NONE', *, *, #123, .F. ) ;
#259 = DIRECTION ( 'NONE',  ( -0.0000000000000000000, 0.0000000000000000000, 1.000000000000000000 ) ) ;
#260 = APPROVAL_DATE_TIME ( #244, #79 ) ;
#261 = FACE_OUTER_BOUND ( 'NONE', #147, .T. ) ;
#262 = PRODUCT ( 'Web Model 88232_88233', 'Web Model 88232_88233', '', ( #62 ) ) ;
#263 = PERSON_AND_ORGANIZATION_ROLE ( 'classification_officer' ) ;
#264 = CALENDAR_DATE ( 2019, 20, 5 ) ;
#265 = APPROVAL_PERSON_ORGANIZATION ( #174, #163, #136 ) ;
#266 = LOCAL_TIME ( 11, 26, 35.00000000000000000, #242 ) ;
#267 = EDGE_LOOP ( 'NONE', ( #312, #240, #177 ) ) ;
#268 = PLANE ( 'NONE',  #286 ) ;
#269 = CARTESIAN_POINT ( 'NONE',  ( 0.0000000000000000000, 0.0000000000000000000, 6.349999999999999645 ) ) ;
#270 = CALENDAR_DATE ( 2019, 20, 5 ) ;
#271 = CARTESIAN_POINT ( 'NONE',  ( -6.349999999999999645, 0.0000000000000000000, -6.349999999999999645 ) ) ;
#272 = LINE ( 'NONE', #122, #192 ) ;
#273 = ORIENTED_EDGE ( 'NONE', *, *, #110, .F. ) ;
#274 = PLANE ( 'NONE',  #38 ) ;
#275 = EDGE_CURVE ( 'NONE', #28, #249, #18, .T. ) ;
#276 = CARTESIAN_POINT ( 'NONE',  ( 6.349999999999999645, 0.0000000000000000000, -6.349999999999999645 ) ) ;
#277 = AXIS2_PLACEMENT_3D ( 'NONE', #300, #226, #127 ) ;
#278 = VERTEX_POINT ( 'NONE', #106 ) ;
#279 = DIRECTION ( 'NONE',  ( 1.000000000000000000, 0.0000000000000000000, 0.0000000000000000000 ) ) ;
#280 = CARTESIAN_POINT ( 'NONE',  ( 0.0000000000000000000, 6.349999999999999645, 6.349999999999999645 ) ) ;
#281 = PERSON_AND_ORGANIZATION ( #241, #111 ) ;
#282 = ORIENTED_EDGE ( 'NONE', *, *, #137, .T. ) ;
#283 = CARTESIAN_POINT ( 'NONE',  ( 6.349999999999998757, -6.349999999999998757, 6.349999999999999645 ) ) ;
#284 = LINE ( 'NONE', #148, #151 ) ;
#285 = PERSON_AND_ORGANIZATION_ROLE ( 'creator' ) ;
#286 = AXIS2_PLACEMENT_3D ( 'NONE', #247, #218, #294 ) ;
#287 = DATE_AND_TIME ( #270, #219 ) ;
#288 = VECTOR ( 'NONE', #58, 1000.000000000000000 ) ;
#289 = ORIENTED_EDGE ( 'NONE', *, *, #251, .F. ) ;
#290 = APPROVAL_DATE_TIME ( #287, #154 ) ;
#291 = ORIENTED_EDGE ( 'NONE', *, *, #27, .T. ) ;
#292 = EDGE_CURVE ( 'NONE', #237, #82, #44, .T. ) ;
#293 = EDGE_CURVE ( 'NONE', #278, #249, #311, .T. ) ;
#294 = DIRECTION ( 'NONE',  ( -0.7071067811865474617, 0.7071067811865474617, 0.0000000000000000000 ) ) ;
#295 = VERTEX_POINT ( 'NONE', #283 ) ;
#296 = CARTESIAN_POINT ( 'NONE',  ( 6.349999999999998757, -6.349999999999998757, 6.349999999999999645 ) ) ;
#297 = AXIS2_PLACEMENT_3D ( 'NONE', #53, #198, #81 ) ;
#298 = DIRECTION ( 'NONE',  ( -0.0000000000000000000, -0.0000000000000000000, -1.000000000000000000 ) ) ;
#299 = ADVANCED_FACE ( 'NONE', ( #180 ), #84, .T. ) ;
#300 = CARTESIAN_POINT ( 'NONE',  ( -6.349999999999999645, 0.0000000000000000000, 6.349999999999999645 ) ) ;
#301 = APPROVAL_DATE_TIME ( #88, #163 ) ;
#302 = EDGE_LOOP ( 'NONE', ( #181, #102, #20, #80 ) ) ;
#303 = CARTESIAN_POINT ( 'NONE',  ( 0.0000000000000000000, -6.349999999999999645, 6.349999999999999645 ) ) ;
#304 = CARTESIAN_POINT ( 'NONE',  ( 0.0000000000000000000, 0.0000000000000000000, 0.0000000000000000000 ) ) ;
#305 = AXIS2_PLACEMENT_3D ( 'NONE', #269, #109, #231 ) ;
#306 = DATE_AND_TIME ( #185, #55 ) ;
#307 = DIRECTION ( 'NONE',  ( 0.7071067811865474617, -0.7071067811865474617, 0.0000000000000000000 ) ) ;
#308 = FACE_OUTER_BOUND ( 'NONE', #267, .T. ) ;
#309 = CARTESIAN_POINT ( 'NONE',  ( 0.0000000000000000000, 6.349999999999999645, 6.349999999999999645 ) ) ;
#310 = APPLICATION_CONTEXT ( 'configuration controlled 3d designs of mechanical parts and assemblies' ) ;
#311 = LINE ( 'NONE', #10, #252 ) ;
#312 = ORIENTED_EDGE ( 'NONE', *, *, #315, .T. ) ;
#313 = APPROVAL_STATUS ( 'not_yet_approved' ) ;
#314 = AXIS2_PLACEMENT_3D ( 'NONE', #304, #233, #207 ) ;
#315 = EDGE_CURVE ( 'NONE', #237, #143, #191, .T. ) ;
#316 = VECTOR ( 'NONE', #209, 1000.000000000000114 ) ;
#317 = ADVANCED_FACE ( 'NONE', ( #138 ), #103, .F. ) ;
#318 = ORIENTED_EDGE ( 'NONE', *, *, #215, .F. ) ;
#319 = ADVANCED_BREP_SHAPE_REPRESENTATION ( 'Web Model 88232_88233', ( #139, #105, #314 ), #320 ) ;
#320 =( GEOMETRIC_REPRESENTATION_CONTEXT ( 3 ) GLOBAL_UNCERTAINTY_ASSIGNED_CONTEXT ( ( #78 ) ) GLOBAL_UNIT_ASSIGNED_CONTEXT ( ( #129, #60, #232 ) ) REPRESENTATION_CONTEXT ( 'NONE', 'WORKASPACE' ) );
#321 = CARTESIAN_POINT ( 'NONE',  ( 0.0000000000000000000, -6.349999999999999645, 6.349999999999999645 ) ) ;
ENDSEC;
END-ISO-10303-21;
