ISO-10303-21;
HEADER;
FILE_DESCRIPTION (( 'STEP AP203' ),
    '1' );
FILE_NAME ('20138-E0W.STEP',
    '2019-07-16T11:13:02',
    ( '' ),
    ( '' ),
    'SwSTEP 2.0',
    'SolidWorks 2018',
    '' );
FILE_SCHEMA (( 'CONFIG_CONTROL_DESIGN' ));
ENDSEC;

DATA;
#1 = ORIENTED_EDGE ( 'NONE', *, *, #247, .F. ) ;
#2 = DIRECTION ( 'NONE',  ( 0.0000000000000000000, -1.000000000000000000, -3.122502256758251784E-16 ) ) ;
#3 = CC_DESIGN_PERSON_AND_ORGANIZATION_ASSIGNMENT ( #117, #8, ( #289 ) ) ;
#4 = CALENDAR_DATE ( 2019, 16, 7 ) ;
#5 = PERSON_AND_ORGANIZATION_ROLE ( 'design_owner' ) ;
#6 = ORIENTED_EDGE ( 'NONE', *, *, #221, .T. ) ;
#7 = APPROVAL_ROLE ( '' ) ;
#8 = PERSON_AND_ORGANIZATION_ROLE ( 'creator' ) ;
#9 = PERSON_AND_ORGANIZATION ( #237, #11 ) ;
#10 = ORIENTED_EDGE ( 'NONE', *, *, #133, .T. ) ;
#11 = ORGANIZATION ( 'UNSPECIFIED', 'UNSPECIFIED', '' ) ;
#12 = VERTEX_POINT ( 'NONE', #180 ) ;
#13 = EDGE_CURVE ( 'NONE', #268, #12, #179, .T. ) ;
#14 = LOCAL_TIME ( 7, 13, 2.000000000000000000, #76 ) ;
#15 = CIRCLE ( 'NONE', #145, 1.270000000000000240 ) ;
#16 = CARTESIAN_POINT ( 'NONE',  ( 0.0000000000000000000, 3.943232459308081405E-17, -0.09850000000000083689 ) ) ;
#17 = CC_DESIGN_PERSON_AND_ORGANIZATION_ASSIGNMENT ( #278, #261, ( #156 ) ) ;
#18 = CIRCLE ( 'NONE', #169, 1.250043510662706803 ) ;
#19 = CARTESIAN_POINT ( 'NONE',  ( 0.0000000000000000000, -2.683619723040048320E-15, 0.1184999999999936104 ) ) ;
#20 = AXIS2_PLACEMENT_3D ( 'NONE', #279, #182, #2 ) ;
#21 = CONICAL_SURFACE ( 'NONE', #262, 1.270000000000000240, 0.7561106524228201620 ) ;
#22 = VECTOR ( 'NONE', #229, 100.0000000000000000 ) ;
#23 = CARTESIAN_POINT ( 'NONE',  ( 1.555301434917138827E-16, -1.270000000000000240, 0.06129422259904776515 ) ) ;
#24 = CARTESIAN_POINT ( 'NONE',  ( 0.0000000000000000000, -4.000958959990113625E-15, 0.08245528717911732031 ) ) ;
#25 = DIRECTION ( 'NONE',  ( 0.0000000000000000000, 1.000000000000000000, 3.073328992872295381E-16 ) ) ;
#26 = DIRECTION ( 'NONE',  ( 0.0000000000000000000, -0.7071067811865571207, 0.7071067811865380248 ) ) ;
#27 = CALENDAR_DATE ( 2019, 16, 7 ) ;
#28 = CONICAL_SURFACE ( 'NONE', #20, 1.250000000000000444, 0.7853981633974613796 ) ;
#29 = ORIENTED_EDGE ( 'NONE', *, *, #13, .T. ) ;
#30 = DIRECTION ( 'NONE',  ( 1.000000000000000000, 0.0000000000000000000, 0.0000000000000000000 ) ) ;
#31 = DIRECTION ( 'NONE',  ( 0.0000000000000000000, -3.061515884556159096E-16, 1.000000000000000000 ) ) ;
#32 = AXIS2_PLACEMENT_3D ( 'NONE', #134, #153, #127 ) ;
#33 = CYLINDRICAL_SURFACE ( 'NONE', #236, 1.270000000000000240 ) ;
#34 = PERSON_AND_ORGANIZATION ( #237, #11 ) ;
#35 = LINE ( 'NONE', #231, #295 ) ;
#36 = AXIS2_PLACEMENT_3D ( 'NONE', #81, #61, #246 ) ;
#37 = CARTESIAN_POINT ( 'NONE',  ( 1.555301434917138827E-16, -1.270000000000000240, -0.1185000000000003967 ) ) ;
#38 = CALENDAR_DATE ( 2019, 16, 7 ) ;
#39 = DIRECTION ( 'NONE',  ( -0.0000000000000000000, 3.061515884555943146E-16, -1.000000000000000000 ) ) ;
#40 = EDGE_CURVE ( 'NONE', #291, #125, #254, .T. ) ;
#41 = ADVANCED_FACE ( 'NONE', ( #119 ), #293, .T. ) ;
#42 = DIRECTION ( 'NONE',  ( 0.0000000000000000000, -3.061515884555941173E-16, 1.000000000000000000 ) ) ;
#43 = EDGE_CURVE ( 'NONE', #87, #268, #173, .T. ) ;
#44 = LOCAL_TIME ( 7, 13, 2.000000000000000000, #53 ) ;
#45 = CIRCLE ( 'NONE', #225, 21.69400000000000617 ) ;
#46 = PLANE ( 'NONE',  #196 ) ;
#47 = DIRECTION ( 'NONE',  ( 0.0000000000000000000, 1.000000000000000000, 3.035660416082247380E-16 ) ) ;
#48 = CALENDAR_DATE ( 2019, 16, 7 ) ;
#49 = ORIENTED_EDGE ( 'NONE', *, *, #13, .F. ) ;
#50 = CARTESIAN_POINT ( 'NONE',  ( 0.0000000000000000000, 2.629658453880482228E-15, -21.57550000000001234 ) ) ;
#51 = CC_DESIGN_DATE_AND_TIME_ASSIGNMENT ( #93, #238, ( #140 ) ) ;
#52 = CARTESIAN_POINT ( 'NONE',  ( 1.555301434917138827E-16, -1.270000000000000240, 0.06129422259904776515 ) ) ;
#53 = COORDINATED_UNIVERSAL_TIME_OFFSET ( 5, 0, .BEHIND. ) ;
#54 = ORIENTED_EDGE ( 'NONE', *, *, #277, .F. ) ;
#55 = CARTESIAN_POINT ( 'NONE',  ( 0.0000000000000000000, 0.0000000000000000000, 0.0000000000000000000 ) ) ;
#56 = PERSON_AND_ORGANIZATION_ROLE ( 'design_supplier' ) ;
#57 = ORIENTED_EDGE ( 'NONE', *, *, #176, .F. ) ;
#58 = ORIENTED_EDGE ( 'NONE', *, *, #221, .F. ) ;
#59 = FACE_OUTER_BOUND ( 'NONE', #143, .T. ) ;
#60 = CC_DESIGN_PERSON_AND_ORGANIZATION_ASSIGNMENT ( #34, #56, ( #289 ) ) ;
#61 = DIRECTION ( 'NONE',  ( 1.000000000000000000, 0.0000000000000000000, -0.0000000000000000000 ) ) ;
#62 = ORIENTED_EDGE ( 'NONE', *, *, #133, .F. ) ;
#63 = ORIENTED_EDGE ( 'NONE', *, *, #84, .T. ) ;
#64 = APPROVAL ( #216, 'UNSPECIFIED' ) ;
#65 = ORIENTED_EDGE ( 'NONE', *, *, #102, .F. ) ;
#66 = CARTESIAN_POINT ( 'NONE',  ( 0.0000000000000000000, 4.555535636219244396E-17, -0.1185000000000000081 ) ) ;
#67 = DIRECTION ( 'NONE',  ( 0.0000000000000000000, 1.000000000000000000, 3.122502256758251784E-16 ) ) ;
#68 = CARTESIAN_POINT ( 'NONE',  ( 0.0000000000000000000, 1.270000000000000240, -0.1184999999999996195 ) ) ;
#69 = CLOSED_SHELL ( 'NONE', ( #206, #226, #41, #108, #252, #86, #154, #174, #132 ) ) ;
#70 = DIRECTION ( 'NONE',  ( 0.0000000000000000000, -1.000000000000000000, -3.073328992872295381E-16 ) ) ;
#71 = CARTESIAN_POINT ( 'NONE',  ( 1.530861784127989275E-16, -1.250043510662698587, 0.08245528717911573824 ) ) ;
#72 = DIRECTION ( 'NONE',  ( 0.0000000000000000000, 0.0000000000000000000, 1.000000000000000000 ) ) ;
#73 = ORIENTED_EDGE ( 'NONE', *, *, #163, .F. ) ;
#74 = PERSON_AND_ORGANIZATION_ROLE ( 'creator' ) ;
#75 = AXIS2_PLACEMENT_3D ( 'NONE', #136, #116, #233 ) ;
#76 = COORDINATED_UNIVERSAL_TIME_OFFSET ( 5, 0, .BEHIND. ) ;
#77 = APPROVAL_PERSON_ORGANIZATION ( #243, #64, #284 ) ;
#78 = EDGE_CURVE ( 'NONE', #223, #291, #168, .T. ) ;
#79 = VECTOR ( 'NONE', #26, 100.0000000000000000 ) ;
#80 = ORIENTED_EDGE ( 'NONE', *, *, #187, .F. ) ;
#81 = CARTESIAN_POINT ( 'NONE',  ( 0.0000000000000000000, 2.629658453880482228E-15, -21.57550000000001234 ) ) ;
#82 = CARTESIAN_POINT ( 'NONE',  ( 0.0000000000000000000, 4.555535636219249943E-17, -0.1185000000000002024 ) ) ;
#83 = PERSON_AND_ORGANIZATION ( #237, #11 ) ;
#84 = EDGE_CURVE ( 'NONE', #268, #87, #107, .T. ) ;
#85 = DIRECTION ( 'NONE',  ( -0.0000000000000000000, 3.061515884555943146E-16, -1.000000000000000000 ) ) ;
#86 = ADVANCED_FACE ( 'NONE', ( #59 ), #232, .T. ) ;
#87 = VERTEX_POINT ( 'NONE', #129 ) ;
#88 = FACE_OUTER_BOUND ( 'NONE', #191, .T. ) ;
#89 = DIRECTION ( 'NONE',  ( 0.0000000000000000000, -1.000000000000000000, -3.073328992872295381E-16 ) ) ;
#90 = DIRECTION ( 'NONE',  ( 0.0000000000000000000, -3.061515884555941173E-16, 1.000000000000000000 ) ) ;
#91 = PRODUCT ( '20138-E0W', '20138-E0W', '', ( #260 ) ) ;
#92 = DIRECTION ( 'NONE',  ( -0.0000000000000000000, 3.061515884555943146E-16, -1.000000000000000000 ) ) ;
#93 = DATE_AND_TIME ( #272, #14 ) ;
#94 = CIRCLE ( 'NONE', #146, 1.250043510662706803 ) ;
#95 = APPLICATION_PROTOCOL_DEFINITION ( 'international standard', 'config_control_design', 1994, #235 ) ;
#96 = SECURITY_CLASSIFICATION_LEVEL ( 'unclassified' ) ;
#97 = LOCAL_TIME ( 7, 13, 2.000000000000000000, #158 ) ;
#98 = LOCAL_TIME ( 7, 13, 2.000000000000000000, #159 ) ;
#99 = CARTESIAN_POINT ( 'NONE',  ( 0.0000000000000000000, 2.629658453880482228E-15, -21.57550000000001234 ) ) ;
#100 = EDGE_LOOP ( 'NONE', ( #147, #29, #65, #58 ) ) ;
#101 = DATE_TIME_ROLE ( 'classification_date' ) ;
#102 = EDGE_CURVE ( 'NONE', #125, #12, #15, .T. ) ;
#103 = ORIENTED_EDGE ( 'NONE', *, *, #43, .T. ) ;
#104 = DATE_AND_TIME ( #27, #177 ) ;
#105 = CC_DESIGN_PERSON_AND_ORGANIZATION_ASSIGNMENT ( #222, #5, ( #91 ) ) ;
#106 = DIRECTION ( 'NONE',  ( -0.0000000000000000000, 3.061515884556159096E-16, -1.000000000000000000 ) ) ;
#107 = CIRCLE ( 'NONE', #200, 1.250000000000000444 ) ;
#108 = ADVANCED_FACE ( 'NONE', ( #274 ), #217, .T. ) ;
#109 = CC_DESIGN_PERSON_AND_ORGANIZATION_ASSIGNMENT ( #83, #74, ( #140 ) ) ;
#110 = CIRCLE ( 'NONE', #115, 21.69400000000000617 ) ;
#111 = DIRECTION ( 'NONE',  ( 0.0000000000000000000, 1.000000000000000000, 3.073328992872295381E-16 ) ) ;
#112 = EDGE_CURVE ( 'NONE', #291, #223, #228, .T. ) ;
#113 = DIRECTION ( 'NONE',  ( -0.0000000000000000000, 3.061515884556159096E-16, -1.000000000000000000 ) ) ;
#114 = CARTESIAN_POINT ( 'NONE',  ( 0.0000000000000000000, -9.488930481643786210E-18, 0.06129422259904815373 ) ) ;
#115 = AXIS2_PLACEMENT_3D ( 'NONE', #50, #256, #300 ) ;
#116 = DIRECTION ( 'NONE',  ( 0.0000000000000000000, -3.061515884555941173E-16, 1.000000000000000000 ) ) ;
#117 = PERSON_AND_ORGANIZATION ( #237, #11 ) ;
#118 = DATE_AND_TIME ( #4, #98 ) ;
#119 = FACE_OUTER_BOUND ( 'NONE', #203, .T. ) ;
#120 = APPROVAL_STATUS ( 'not_yet_approved' ) ;
#121 = CC_DESIGN_APPROVAL ( #64, ( #289 ) ) ;
#122 = VERTEX_POINT ( 'NONE', #19 ) ;
#123 = ADVANCED_BREP_SHAPE_REPRESENTATION ( '20138-E0W', ( #287, #257 ), #251 ) ;
#124 = PERSON_AND_ORGANIZATION ( #237, #11 ) ;
#125 = VERTEX_POINT ( 'NONE', #269 ) ;
#126 = DIRECTION ( 'NONE',  ( 0.0000000000000000000, 1.000000000000000000, 3.073328992872295381E-16 ) ) ;
#127 = DIRECTION ( 'NONE',  ( 0.0000000000000000000, 1.000000000000000000, 2.558825077498746704E-16 ) ) ;
#128 = EDGE_CURVE ( 'NONE', #12, #125, #194, .T. ) ;
#129 = CARTESIAN_POINT ( 'NONE',  ( 0.0000000000000000000, -1.250000000000000444, -0.1185000000000005910 ) ) ;
#130 = LINE ( 'NONE', #68, #224 ) ;
#131 = EDGE_LOOP ( 'NONE', ( #1, #54, #148, #219 ) ) ;
#132 = ADVANCED_FACE ( 'NONE', ( #152 ), #21, .T. ) ;
#133 = EDGE_CURVE ( 'NONE', #223, #12, #130, .T. ) ;
#134 = CARTESIAN_POINT ( 'NONE',  ( 0.0000000000000000000, 2.629658453880482228E-15, -21.57550000000001234 ) ) ;
#135 = CC_DESIGN_APPROVAL ( #294, ( #156 ) ) ;
#136 = CARTESIAN_POINT ( 'NONE',  ( 0.0000000000000000000, 3.943232459308081405E-17, -0.09850000000000083689 ) ) ;
#137 = ORIENTED_EDGE ( 'NONE', *, *, #163, .T. ) ;
#138 = LINE ( 'NONE', #230, #79 ) ;
#139 = DIRECTION ( 'NONE',  ( 0.0000000000000000000, 1.000000000000000000, 3.061515884555943146E-16 ) ) ;
#140 = PRODUCT_DEFINITION ( 'UNKNOWN', '', #289, #299 ) ;
#141 = DIRECTION ( 'NONE',  ( 0.0000000000000000000, 1.000000000000000000, 3.035660416082247380E-16 ) ) ;
#142 =( LENGTH_UNIT ( ) NAMED_UNIT ( * ) SI_UNIT ( .CENTI., .METRE. ) );
#143 = EDGE_LOOP ( 'NONE', ( #73, #241, #186 ) ) ;
#144 =( NAMED_UNIT ( * ) PLANE_ANGLE_UNIT ( ) SI_UNIT ( $, .RADIAN. ) );
#145 = AXIS2_PLACEMENT_3D ( 'NONE', #16, #42, #227 ) ;
#146 = AXIS2_PLACEMENT_3D ( 'NONE', #24, #255, #47 ) ;
#147 = ORIENTED_EDGE ( 'NONE', *, *, #84, .F. ) ;
#148 = ORIENTED_EDGE ( 'NONE', *, *, #176, .T. ) ;
#149 = DIRECTION ( 'NONE',  ( 0.0000000000000000000, 1.000000000000000000, 3.122502256758251784E-16 ) ) ;
#150 = CC_DESIGN_SECURITY_CLASSIFICATION ( #156, ( #289 ) ) ;
#151 = FACE_OUTER_BOUND ( 'NONE', #296, .T. ) ;
#152 = FACE_OUTER_BOUND ( 'NONE', #131, .T. ) ;
#153 = DIRECTION ( 'NONE',  ( 1.000000000000000000, 0.0000000000000000000, -0.0000000000000000000 ) ) ;
#154 = ADVANCED_FACE ( 'NONE', ( #198 ), #33, .T. ) ;
#155 = APPROVAL_DATE_TIME ( #118, #175 ) ;
#156 = SECURITY_CLASSIFICATION ( '', '', #96 ) ;
#157 = DIRECTION ( 'NONE',  ( -0.0000000000000000000, 3.061515884555943146E-16, -1.000000000000000000 ) ) ;
#158 = COORDINATED_UNIVERSAL_TIME_OFFSET ( 5, 0, .BEHIND. ) ;
#159 = COORDINATED_UNIVERSAL_TIME_OFFSET ( 5, 0, .BEHIND. ) ;
#160 = ORIENTED_EDGE ( 'NONE', *, *, #247, .T. ) ;
#161 = CARTESIAN_POINT ( 'NONE',  ( 0.0000000000000000000, -9.488930481644864731E-18, 0.06129422259904815373 ) ) ;
#162 = CARTESIAN_POINT ( 'NONE',  ( 0.0000000000000000000, 1.270000000000000240, 0.06129422259904854231 ) ) ;
#163 = EDGE_CURVE ( 'NONE', #122, #239, #110, .T. ) ;
#164 = CARTESIAN_POINT ( 'NONE',  ( 0.0000000000000000000, 4.555535636219249943E-17, -0.1185000000000002024 ) ) ;
#165 = AXIS2_PLACEMENT_3D ( 'NONE', #114, #234, #208 ) ;
#166 = EDGE_LOOP ( 'NONE', ( #103, #63 ) ) ;
#167 = APPROVAL_STATUS ( 'not_yet_approved' ) ;
#168 = CIRCLE ( 'NONE', #275, 1.270000000000000240 ) ;
#169 = AXIS2_PLACEMENT_3D ( 'NONE', #214, #31, #141 ) ;
#170 = AXIS2_PLACEMENT_3D ( 'NONE', #164, #90, #273 ) ;
#171 = APPROVAL_DATE_TIME ( #104, #64 ) ;
#172 = LINE ( 'NONE', #23, #263 ) ;
#173 = CIRCLE ( 'NONE', #181, 1.250000000000000444 ) ;
#174 = ADVANCED_FACE ( 'NONE', ( #88 ), #28, .T. ) ;
#175 = APPROVAL ( #167, 'UNSPECIFIED' ) ;
#176 = EDGE_CURVE ( 'NONE', #266, #223, #35, .T. ) ;
#177 = LOCAL_TIME ( 7, 13, 2.000000000000000000, #286 ) ;
#178 = CARTESIAN_POINT ( 'NONE',  ( 1.530808498934191817E-16, 1.250000000000000444, -0.1184999999999998138 ) ) ;
#179 = LINE ( 'NONE', #178, #22 ) ;
#180 = CARTESIAN_POINT ( 'NONE',  ( 0.0000000000000000000, 1.270000000000000240, -0.09850000000000044831 ) ) ;
#181 = AXIS2_PLACEMENT_3D ( 'NONE', #207, #39, #67 ) ;
#182 = DIRECTION ( 'NONE',  ( 0.0000000000000000000, -3.061515884555941173E-16, 1.000000000000000000 ) ) ;
#183 = DATE_AND_TIME ( #38, #97 ) ;
#184 = VECTOR ( 'NONE', #85, 100.0000000000000000 ) ;
#185 = DIRECTION ( 'NONE',  ( -0.0000000000000000000, 3.061515884556159096E-16, -1.000000000000000000 ) ) ;
#186 = ORIENTED_EDGE ( 'NONE', *, *, #277, .T. ) ;
#187 = EDGE_CURVE ( 'NONE', #239, #266, #94, .T. ) ;
#188 = DIRECTION ( 'NONE',  ( -0.0000000000000000000, 3.061515884555943146E-16, -1.000000000000000000 ) ) ;
#189 = CC_DESIGN_DATE_AND_TIME_ASSIGNMENT ( #292, #101, ( #156 ) ) ;
#190 = PRODUCT_RELATED_PRODUCT_CATEGORY ( 'detail', '', ( #91 ) ) ;
#191 = EDGE_LOOP ( 'NONE', ( #49, #195, #6, #271 ) ) ;
#192 = APPLICATION_PROTOCOL_DEFINITION ( 'international standard', 'config_control_design', 1994, #240 ) ;
#193 = CARTESIAN_POINT ( 'NONE',  ( 0.0000000000000000000, 4.555535636219249943E-17, -0.1185000000000002024 ) ) ;
#194 = CIRCLE ( 'NONE', #75, 1.270000000000000240 ) ;
#195 = ORIENTED_EDGE ( 'NONE', *, *, #43, .F. ) ;
#196 = AXIS2_PLACEMENT_3D ( 'NONE', #193, #188, #139 ) ;
#197 = APPROVAL_DATE_TIME ( #183, #294 ) ;
#198 = FACE_OUTER_BOUND ( 'NONE', #301, .T. ) ;
#199 = PRODUCT_DEFINITION_SHAPE ( 'NONE', 'NONE',  #140 ) ;
#200 = AXIS2_PLACEMENT_3D ( 'NONE', #82, #248, #149 ) ;
#201 = CARTESIAN_POINT ( 'NONE',  ( 0.0000000000000000000, -9.488930481644864731E-18, 0.06129422259904815373 ) ) ;
#202 = APPROVAL_PERSON_ORGANIZATION ( #124, #175, #215 ) ;
#203 = EDGE_LOOP ( 'NONE', ( #288, #250, #209, #62 ) ) ;
#204 = ORIENTED_EDGE ( 'NONE', *, *, #78, .F. ) ;
#205 = AXIS2_PLACEMENT_3D ( 'NONE', #161, #113, #70 ) ;
#206 = ADVANCED_FACE ( 'NONE', ( #151 ), #244, .T. ) ;
#207 = CARTESIAN_POINT ( 'NONE',  ( 0.0000000000000000000, 4.555535636219249943E-17, -0.1185000000000002024 ) ) ;
#208 = DIRECTION ( 'NONE',  ( 0.0000000000000000000, 1.000000000000000000, 3.073328992872295381E-16 ) ) ;
#209 = ORIENTED_EDGE ( 'NONE', *, *, #102, .T. ) ;
#210 = DIRECTION ( 'NONE',  ( 8.402266203297798404E-17, -0.6860971023766020416, -0.7275099766397917778 ) ) ;
#211 = UNCERTAINTY_MEASURE_WITH_UNIT (LENGTH_MEASURE( 1.000000000000000082E-05 ), #142, 'distance_accuracy_value', 'NONE');
#212 = ORIENTED_EDGE ( 'NONE', *, *, #259, .F. ) ;
#213 = CONICAL_SURFACE ( 'NONE', #170, 1.250000000000000444, 0.7853981633974613796 ) ;
#214 = CARTESIAN_POINT ( 'NONE',  ( 0.0000000000000000000, -4.000958959990113625E-15, 0.08245528717911732031 ) ) ;
#215 = APPROVAL_ROLE ( '' ) ;
#216 = APPROVAL_STATUS ( 'not_yet_approved' ) ;
#217 = SPHERICAL_SURFACE ( 'NONE', #32, 21.69400000000000617 ) ;
#218 = CARTESIAN_POINT ( 'NONE',  ( 1.543054966925665322E-16, 1.250000000000000444, -0.1184999999999998138 ) ) ;
#219 = ORIENTED_EDGE ( 'NONE', *, *, #112, .F. ) ;
#220 = SHAPE_DEFINITION_REPRESENTATION ( #199, #123 ) ;
#221 = EDGE_CURVE ( 'NONE', #87, #125, #138, .T. ) ;
#222 = PERSON_AND_ORGANIZATION ( #237, #11 ) ;
#223 = VERTEX_POINT ( 'NONE', #162 ) ;
#224 = VECTOR ( 'NONE', #92, 100.0000000000000000 ) ;
#225 = AXIS2_PLACEMENT_3D ( 'NONE', #99, #280, #282 ) ;
#226 = ADVANCED_FACE ( 'NONE', ( #267 ), #213, .T. ) ;
#227 = DIRECTION ( 'NONE',  ( 0.0000000000000000000, 1.000000000000000000, 3.073328992872295381E-16 ) ) ;
#228 = CIRCLE ( 'NONE', #205, 1.270000000000000240 ) ;
#229 = DIRECTION ( 'NONE',  ( 8.659560562355046257E-17, 0.7071067811865564545, 0.7071067811865384689 ) ) ;
#230 = CARTESIAN_POINT ( 'NONE',  ( 0.0000000000000000000, -1.250000000000000444, -0.1185000000000005910 ) ) ;
#231 = CARTESIAN_POINT ( 'NONE',  ( 0.0000000000000000000, 1.270000000000000240, 0.06129422259904854231 ) ) ;
#232 = SPHERICAL_SURFACE ( 'NONE', #36, 21.69400000000000617 ) ;
#233 = DIRECTION ( 'NONE',  ( 0.0000000000000000000, 1.000000000000000000, 3.073328992872295381E-16 ) ) ;
#234 = DIRECTION ( 'NONE',  ( -0.0000000000000000000, 3.061515884556159096E-16, -1.000000000000000000 ) ) ;
#235 = APPLICATION_CONTEXT ( 'configuration controlled 3d designs of mechanical parts and assemblies' ) ;
#236 = AXIS2_PLACEMENT_3D ( 'NONE', #297, #253, #111 ) ;
#237 = PERSON ( 'UNSPECIFIED', 'UNSPECIFIED', 'UNSPECIFIED', ('UNSPECIFIED'), ('UNSPECIFIED'), ('UNSPECIFIED') ) ;
#238 = DATE_TIME_ROLE ( 'creation_date' ) ;
#239 = VERTEX_POINT ( 'NONE', #71 ) ;
#240 = APPLICATION_CONTEXT ( 'configuration controlled 3d designs of mechanical parts and assemblies' ) ;
#241 = ORIENTED_EDGE ( 'NONE', *, *, #259, .T. ) ;
#242 = AXIS2_PLACEMENT_3D ( 'NONE', #66, #157, #126 ) ;
#243 = PERSON_AND_ORGANIZATION ( #237, #11 ) ;
#244 = CONICAL_SURFACE ( 'NONE', #165, 1.270000000000000240, 0.7561106524228201620 ) ;
#245 = ORIENTED_EDGE ( 'NONE', *, *, #128, .T. ) ;
#246 = DIRECTION ( 'NONE',  ( 0.0000000000000000000, 1.000000000000000000, 2.558825077498746704E-16 ) ) ;
#247 = EDGE_CURVE ( 'NONE', #239, #291, #172, .T. ) ;
#248 = DIRECTION ( 'NONE',  ( -0.0000000000000000000, 3.061515884555943146E-16, -1.000000000000000000 ) ) ;
#249 = ORIENTED_EDGE ( 'NONE', *, *, #112, .T. ) ;
#250 = ORIENTED_EDGE ( 'NONE', *, *, #40, .T. ) ;
#251 =( GEOMETRIC_REPRESENTATION_CONTEXT ( 3 ) GLOBAL_UNCERTAINTY_ASSIGNED_CONTEXT ( ( #211 ) ) GLOBAL_UNIT_ASSIGNED_CONTEXT ( ( #142, #144, #258 ) ) REPRESENTATION_CONTEXT ( 'NONE', 'WORKASPACE' ) );
#252 = ADVANCED_FACE ( 'NONE', ( #290 ), #46, .T. ) ;
#253 = DIRECTION ( 'NONE',  ( -0.0000000000000000000, 3.061515884555943146E-16, -1.000000000000000000 ) ) ;
#254 = LINE ( 'NONE', #37, #184 ) ;
#255 = DIRECTION ( 'NONE',  ( 0.0000000000000000000, -3.061515884556159096E-16, 1.000000000000000000 ) ) ;
#256 = DIRECTION ( 'NONE',  ( 1.000000000000000000, 1.224646799147353207E-16, 3.749275628560213616E-32 ) ) ;
#257 = AXIS2_PLACEMENT_3D ( 'NONE', #55, #72, #30 ) ;
#258 =( NAMED_UNIT ( * ) SI_UNIT ( $, .STERADIAN. ) SOLID_ANGLE_UNIT ( ) );
#259 = EDGE_CURVE ( 'NONE', #122, #266, #45, .T. ) ;
#260 = MECHANICAL_CONTEXT ( 'NONE', #235, 'mechanical' ) ;
#261 = PERSON_AND_ORGANIZATION_ROLE ( 'classification_officer' ) ;
#262 = AXIS2_PLACEMENT_3D ( 'NONE', #276, #185, #25 ) ;
#263 = VECTOR ( 'NONE', #210, 100.0000000000000142 ) ;
#264 = ORIENTED_EDGE ( 'NONE', *, *, #40, .F. ) ;
#265 = EDGE_LOOP ( 'NONE', ( #212, #137, #283 ) ) ;
#266 = VERTEX_POINT ( 'NONE', #285 ) ;
#267 = FACE_OUTER_BOUND ( 'NONE', #100, .T. ) ;
#268 = VERTEX_POINT ( 'NONE', #218 ) ;
#269 = CARTESIAN_POINT ( 'NONE',  ( 1.555301434917138827E-16, -1.270000000000000240, -0.09850000000000123934 ) ) ;
#270 = APPROVAL_PERSON_ORGANIZATION ( #9, #294, #7 ) ;
#271 = ORIENTED_EDGE ( 'NONE', *, *, #128, .F. ) ;
#272 = CALENDAR_DATE ( 2019, 16, 7 ) ;
#273 = DIRECTION ( 'NONE',  ( 0.0000000000000000000, -1.000000000000000000, -3.122502256758251784E-16 ) ) ;
#274 = FACE_OUTER_BOUND ( 'NONE', #265, .T. ) ;
#275 = AXIS2_PLACEMENT_3D ( 'NONE', #201, #106, #89 ) ;
#276 = CARTESIAN_POINT ( 'NONE',  ( 0.0000000000000000000, -9.488930481643786210E-18, 0.06129422259904815373 ) ) ;
#277 = EDGE_CURVE ( 'NONE', #266, #239, #18, .T. ) ;
#278 = PERSON_AND_ORGANIZATION ( #237, #11 ) ;
#279 = CARTESIAN_POINT ( 'NONE',  ( 0.0000000000000000000, 4.555535636219249943E-17, -0.1185000000000002024 ) ) ;
#280 = DIRECTION ( 'NONE',  ( -1.000000000000000000, 0.0000000000000000000, 0.0000000000000000000 ) ) ;
#281 = CC_DESIGN_APPROVAL ( #175, ( #140 ) ) ;
#282 = DIRECTION ( 'NONE',  ( 0.0000000000000000000, 0.0000000000000000000, 1.000000000000000000 ) ) ;
#283 = ORIENTED_EDGE ( 'NONE', *, *, #187, .T. ) ;
#284 = APPROVAL_ROLE ( '' ) ;
#285 = CARTESIAN_POINT ( 'NONE',  ( 0.0000000000000000000, 1.250043510662690593, 0.08245528717911612682 ) ) ;
#286 = COORDINATED_UNIVERSAL_TIME_OFFSET ( 5, 0, .BEHIND. ) ;
#287 = MANIFOLD_SOLID_BREP ( '20138-001-1-solid1', #69 ) ;
#288 = ORIENTED_EDGE ( 'NONE', *, *, #78, .T. ) ;
#289 = PRODUCT_DEFINITION_FORMATION_WITH_SPECIFIED_SOURCE ( 'ANY', '', #91, .NOT_KNOWN. ) ;
#290 = FACE_OUTER_BOUND ( 'NONE', #166, .T. ) ;
#291 = VERTEX_POINT ( 'NONE', #52 ) ;
#292 = DATE_AND_TIME ( #48, #44 ) ;
#293 = CYLINDRICAL_SURFACE ( 'NONE', #242, 1.270000000000000240 ) ;
#294 = APPROVAL ( #120, 'UNSPECIFIED' ) ;
#295 = VECTOR ( 'NONE', #298, 100.0000000000000142 ) ;
#296 = EDGE_LOOP ( 'NONE', ( #80, #160, #204, #57 ) ) ;
#297 = CARTESIAN_POINT ( 'NONE',  ( 0.0000000000000000000, 4.555535636219244396E-17, -0.1185000000000000081 ) ) ;
#298 = DIRECTION ( 'NONE',  ( 0.0000000000000000000, 0.6860971023766025967, -0.7275099766397913337 ) ) ;
#299 = DESIGN_CONTEXT ( 'detailed design', #240, 'design' ) ;
#300 = DIRECTION ( 'NONE',  ( -1.224646799147353454E-16, 1.000000000000000000, 0.0000000000000000000 ) ) ;
#301 = EDGE_LOOP ( 'NONE', ( #264, #249, #10, #245 ) ) ;
ENDSEC;
END-ISO-10303-21;
