ISO-10303-21;
HEADER;
FILE_DESCRIPTION (( 'STEP AP214' ),
    '1' );
FILE_NAME ('4439-E0W.STEP',
    '2009-12-21T17:01:29',
    ( ' ' ),
    ( ' ' ),
    'SwSTEP 2.0',
    'SolidWorks 2009',
    '' );
FILE_SCHEMA (( 'AUTOMOTIVE_DESIGN' ));
ENDSEC;

DATA;
#1 =( NAMED_UNIT ( * ) SI_UNIT ( $, .STERADIAN. ) SOLID_ANGLE_UNIT ( ) );
#2 = SURFACE_STYLE_FILL_AREA ( #4 ) ;
#3 = STYLED_ITEM ( 'NONE', ( #6 ), #31 ) ;
#4 = FILL_AREA_STYLE ('',( #12 ) ) ;
#5 = PRESENTATION_LAYER_ASSIGNMENT (  '', '', ( #3 ) ) ;
#6 = PRESENTATION_STYLE_ASSIGNMENT (( #7 ) ) ;
#7 = SURFACE_STYLE_USAGE ( .BOTH. , #10 ) ;
#8 = MECHANICAL_DESIGN_GEOMETRIC_PRESENTATION_REPRESENTATION (  '', ( #3 ), #52 ) ;
#9 =( NAMED_UNIT ( * ) PLANE_ANGLE_UNIT ( ) SI_UNIT ( $, .RADIAN. ) );
#10 = SURFACE_SIDE_STYLE ('',( #2 ) ) ;
#11 =( LENGTH_UNIT ( ) NAMED_UNIT ( * ) SI_UNIT ( .MILLI., .METRE. ) );
#12 = FILL_AREA_STYLE_COLOUR ( '', #87 ) ;
#13 = UNCERTAINTY_MEASURE_WITH_UNIT (LENGTH_MEASURE( 1.000000000000000100E-005 ), #11, 'distance_accuracy_value', 'NONE');
#14 = ORIENTED_EDGE ( 'NONE', *, *, #44, .T. ) ;
#15 = VERTEX_POINT ( 'NONE', #25 ) ;
#16 = ORIENTED_EDGE ( 'NONE', *, *, #75, .F. ) ;
#17 = EDGE_CURVE ( 'NONE', #15, #42, #46, .T. ) ;
#18 = EDGE_LOOP ( 'NONE', ( #70, #40, #43, #16, #30 ) ) ;
#19 = EDGE_CURVE ( 'NONE', #57, #38, #80, .T. ) ;
#20 = DIRECTION ( 'NONE',  ( -1.224606353822377300E-016, -1.000000000000000000, 0.0000000000000000000 ) ) ;
#21 = ORIENTED_EDGE ( 'NONE', *, *, #74, .T. ) ;
#22 = ORIENTED_EDGE ( 'NONE', *, *, #23, .T. ) ;
#23 = EDGE_CURVE ( 'NONE', #73, #72, #56, .T. ) ;
#24 = ORIENTED_EDGE ( 'NONE', *, *, #17, .T. ) ;
#25 = CARTESIAN_POINT ( 'NONE',  ( 0.0000000000000000000, 12.69999999999996000, 0.6041170174631705900 ) ) ;
#26 = DIRECTION ( 'NONE',  ( 0.0000000000000000000, 0.0000000000000000000, 1.000000000000000000 ) ) ;
#27 = CARTESIAN_POINT ( 'NONE',  ( 0.0000000000000000000, 0.0000000000000000000, 0.0000000000000000000 ) ) ;
#28 = AXIS2_PLACEMENT_3D ( 'NONE', #27, #26, #49 ) ;
#29 = EDGE_CURVE ( 'NONE', #57, #36, #85, .T. ) ;
#30 = ORIENTED_EDGE ( 'NONE', *, *, #44, .F. ) ;
#31 = ADVANCED_FACE ( 'NONE', ( #86 ), #163, .T. ) ;
#32 = ORIENTED_EDGE ( 'NONE', *, *, #23, .F. ) ;
#33 = ORIENTED_EDGE ( 'NONE', *, *, #75, .T. ) ;
#34 = ORIENTED_EDGE ( 'NONE', *, *, #71, .F. ) ;
#35 = ORIENTED_EDGE ( 'NONE', *, *, #64, .T. ) ;
#36 = VERTEX_POINT ( 'NONE', #103 ) ;
#37 = ORIENTED_EDGE ( 'NONE', *, *, #19, .T. ) ;
#38 = VERTEX_POINT ( 'NONE', #142 ) ;
#39 = EDGE_LOOP ( 'NONE', ( #24, #21, #37, #58 ) ) ;
#40 = ORIENTED_EDGE ( 'NONE', *, *, #41, .T. ) ;
#41 = EDGE_CURVE ( 'NONE', #73, #42, #109, .T. ) ;
#42 = VERTEX_POINT ( 'NONE', #149 ) ;
#43 = ORIENTED_EDGE ( 'NONE', *, *, #17, .F. ) ;
#44 = EDGE_CURVE ( 'NONE', #72, #36, #164, .T. ) ;
#45 = AXIS2_PLACEMENT_3D ( 'NONE', #82, #66, #65 ) ;
#46 = CIRCLE ( 'NONE', #45, 12.69999999999999900 ) ;
#47 = CARTESIAN_POINT ( 'NONE',  ( 0.0000000000000000000, 0.0000000000000000000, -101.6199999999999900 ) ) ;
#48 = ORIENTED_EDGE ( 'NONE', *, *, #74, .F. ) ;
#49 = DIRECTION ( 'NONE',  ( 1.000000000000000000, 0.0000000000000000000, 0.0000000000000000000 ) ) ;
#50 = CLOSED_SHELL ( 'NONE', ( #69, #83, #77, #31, #76 ) ) ;
#51 = ORIENTED_EDGE ( 'NONE', *, *, #19, .F. ) ;
#52 =( GEOMETRIC_REPRESENTATION_CONTEXT ( 3 ) GLOBAL_UNCERTAINTY_ASSIGNED_CONTEXT ( ( #13 ) ) GLOBAL_UNIT_ASSIGNED_CONTEXT ( ( #11, #9, #1 ) ) REPRESENTATION_CONTEXT ( 'NONE', 'WORKASPACE' ) );
#53 = DIRECTION ( 'NONE',  ( 1.000000000000000000, 0.0000000000000000000, 0.0000000000000000000 ) ) ;
#54 = DIRECTION ( 'NONE',  ( -0.0000000000000000000, -0.0000000000000000000, 1.000000000000000000 ) ) ;
#55 = AXIS2_PLACEMENT_3D ( 'NONE', #81, #54, #53 ) ;
#56 = CIRCLE ( 'NONE', #55, 12.69999999999999900 ) ;
#57 = VERTEX_POINT ( 'NONE', #111 ) ;
#58 = ORIENTED_EDGE ( 'NONE', *, *, #64, .F. ) ;
#59 = ORIENTED_EDGE ( 'NONE', *, *, #29, .T. ) ;
#60 = EDGE_LOOP ( 'NONE', ( #51, #59, #33, #35 ) ) ;
#61 = EDGE_LOOP ( 'NONE', ( #62, #22, #14, #67, #48 ) ) ;
#62 = ORIENTED_EDGE ( 'NONE', *, *, #41, .F. ) ;
#63 = EDGE_LOOP ( 'NONE', ( #34, #32 ) ) ;
#64 = EDGE_CURVE ( 'NONE', #15, #38, #158, .T. ) ;
#65 = DIRECTION ( 'NONE',  ( 1.000000000000000000, 0.0000000000000000000, 0.0000000000000000000 ) ) ;
#66 = DIRECTION ( 'NONE',  ( -0.0000000000000000000, -0.0000000000000000000, 1.000000000000000000 ) ) ;
#67 = ORIENTED_EDGE ( 'NONE', *, *, #29, .F. ) ;
#68 = MANIFOLD_SOLID_BREP ( 'NONE', #50 ) ;
#69 = ADVANCED_FACE ( 'NONE', ( #138 ), #118, .T. ) ;
#70 = ORIENTED_EDGE ( 'NONE', *, *, #71, .T. ) ;
#71 = EDGE_CURVE ( 'NONE', #72, #73, #166, .T. ) ;
#72 = VERTEX_POINT ( 'NONE', #92 ) ;
#73 = VERTEX_POINT ( 'NONE', #91 ) ;
#74 = EDGE_CURVE ( 'NONE', #42, #57, #128, .T. ) ;
#75 = EDGE_CURVE ( 'NONE', #36, #15, #139, .T. ) ;
#76 = ADVANCED_FACE ( 'NONE', ( #170 ), #181, .F. ) ;
#77 = ADVANCED_FACE ( 'NONE', ( #183 ), #206, .T. ) ;
#78 = DIRECTION ( 'NONE',  ( -1.000000000000000000, 1.224606353822377300E-016, 0.0000000000000000000 ) ) ;
#79 = AXIS2_PLACEMENT_3D ( 'NONE', #47, #78, #20 ) ;
#80 = CIRCLE ( 'NONE', #79, 103.0099999999999900 ) ;
#81 = CARTESIAN_POINT ( 'NONE',  ( 0.0000000000000000000, 0.0000000000000000000, -1.389999999999999700 ) ) ;
#82 = CARTESIAN_POINT ( 'NONE',  ( 0.0000000000000000000, 0.0000000000000000000, 0.6041170174631701500 ) ) ;
#83 = ADVANCED_FACE ( 'NONE', ( #211 ), #216, .T. ) ;
#84 = AXIS2_PLACEMENT_3D ( 'NONE', #90, #89, #88 ) ;
#85 = CIRCLE ( 'NONE', #84, 12.69999999999999900 ) ;
#86 = FACE_OUTER_BOUND ( 'NONE', #61, .T. ) ;
#87 = COLOUR_RGB ( '',0.9568627450980391500, 0.9490196078431372100, 0.9607843137254902200 ) ;
#88 = DIRECTION ( 'NONE',  ( 1.000000000000000000, 0.0000000000000000000, 0.0000000000000000000 ) ) ;
#89 = DIRECTION ( 'NONE',  ( -0.0000000000000000000, -0.0000000000000000000, 1.000000000000000000 ) ) ;
#90 = CARTESIAN_POINT ( 'NONE',  ( 0.0000000000000000000, 0.0000000000000000000, 0.6041170174631701500 ) ) ;
#91 = CARTESIAN_POINT ( 'NONE',  ( -12.69999999999999900, 1.555250069354419100E-015, -1.389999999999999700 ) ) ;
#92 = CARTESIAN_POINT ( 'NONE',  ( 12.69999999999999900, 0.0000000000000000000, -1.389999999999999700 ) ) ;
#93 = COLOUR_RGB ( '',0.7960784313725489700, 0.8235294117647058400, 0.9372549019607843100 ) ;
#94 =( LENGTH_UNIT ( ) NAMED_UNIT ( * ) SI_UNIT ( .MILLI., .METRE. ) );
#95 = PRESENTATION_LAYER_ASSIGNMENT (  '', '', ( #96 ) ) ;
#96 = STYLED_ITEM ( 'NONE', ( #97 ), #76 ) ;
#97 = PRESENTATION_STYLE_ASSIGNMENT (( #98 ) ) ;
#98 = SURFACE_STYLE_USAGE ( .BOTH. , #99 ) ;
#99 = SURFACE_SIDE_STYLE ('',( #113 ) ) ;
#100 = VECTOR ( 'NONE', #150, 1000.000000000000000 ) ;
#101 =( GEOMETRIC_REPRESENTATION_CONTEXT ( 3 ) GLOBAL_UNCERTAINTY_ASSIGNED_CONTEXT ( ( #102 ) ) GLOBAL_UNIT_ASSIGNED_CONTEXT ( ( #165, #156, #133 ) ) REPRESENTATION_CONTEXT ( 'NONE', 'WORKASPACE' ) );
#102 = UNCERTAINTY_MEASURE_WITH_UNIT (LENGTH_MEASURE( 1.000000000000000100E-005 ), #165, 'distance_accuracy_value', 'NONE');
#103 = CARTESIAN_POINT ( 'NONE',  ( 12.69999999999999900, 0.0000000000000000000, 0.6041170174631701500 ) ) ;
#104 = DIRECTION ( 'NONE',  ( 1.000000000000000000, 0.0000000000000000000, 0.0000000000000000000 ) ) ;
#105 = DIRECTION ( 'NONE',  ( -0.0000000000000000000, -0.0000000000000000000, 1.000000000000000000 ) ) ;
#106 = AXIS2_PLACEMENT_3D ( 'NONE', #145, #105, #104 ) ;
#107 =( NAMED_UNIT ( * ) PLANE_ANGLE_UNIT ( ) SI_UNIT ( $, .RADIAN. ) );
#108 = CARTESIAN_POINT ( 'NONE',  ( -12.69999999999999900, 1.555250069354419100E-015, 4.308132045400366600 ) ) ;
#109 = LINE ( 'NONE', #108, #100 ) ;
#110 = DIRECTION ( 'NONE',  ( 1.000000000000000000, 0.0000000000000000000, 0.0000000000000000000 ) ) ;
#111 = CARTESIAN_POINT ( 'NONE',  ( -1.555250069354414300E-015, -12.69999999999996000, 0.6041170174631705900 ) ) ;
#112 = DIRECTION ( 'NONE',  ( -0.0000000000000000000, -0.0000000000000000000, 1.000000000000000000 ) ) ;
#113 = SURFACE_STYLE_FILL_AREA ( #114 ) ;
#114 = FILL_AREA_STYLE ('',( #115 ) ) ;
#115 = FILL_AREA_STYLE_COLOUR ( '', #116 ) ;
#116 = COLOUR_RGB ( '',0.9568627450980391500, 0.9490196078431372100, 0.9607843137254902200 ) ;
#117 = DIRECTION ( 'NONE',  ( 1.000000000000000000, 0.0000000000000000000, 0.0000000000000000000 ) ) ;
#118 = CYLINDRICAL_SURFACE ( 'NONE', #135, 12.69999999999999900 ) ;
#119 = FILL_AREA_STYLE ('',( #120 ) ) ;
#120 = FILL_AREA_STYLE_COLOUR ( '', #121 ) ;
#121 = COLOUR_RGB ( '',0.9568627450980391500, 0.9490196078431372100, 0.9607843137254902200 ) ;
#122 = CARTESIAN_POINT ( 'NONE',  ( 0.0000000000000000000, 0.0000000000000000000, 4.308132045400366600 ) ) ;
#123 = STYLED_ITEM ( 'NONE', ( #124 ), #68 ) ;
#124 = PRESENTATION_STYLE_ASSIGNMENT (( #153 ) ) ;
#125 = DIRECTION ( 'NONE',  ( 1.000000000000000000, 0.0000000000000000000, 0.0000000000000000000 ) ) ;
#126 = DIRECTION ( 'NONE',  ( -0.0000000000000000000, -0.0000000000000000000, 1.000000000000000000 ) ) ;
#127 = AXIS2_PLACEMENT_3D ( 'NONE', #134, #126, #125 ) ;
#128 = CIRCLE ( 'NONE', #127, 12.69999999999999900 ) ;
#129 = MECHANICAL_DESIGN_GEOMETRIC_PRESENTATION_REPRESENTATION (  '', ( #131 ), #132 ) ;
#130 = PRESENTATION_LAYER_ASSIGNMENT (  '', '', ( #131 ) ) ;
#131 = STYLED_ITEM ( 'NONE', ( #171 ), #69 ) ;
#132 =( GEOMETRIC_REPRESENTATION_CONTEXT ( 3 ) GLOBAL_UNCERTAINTY_ASSIGNED_CONTEXT ( ( #140 ) ) GLOBAL_UNIT_ASSIGNED_CONTEXT ( ( #94, #107, #151 ) ) REPRESENTATION_CONTEXT ( 'NONE', 'WORKASPACE' ) );
#133 =( NAMED_UNIT ( * ) SI_UNIT ( $, .STERADIAN. ) SOLID_ANGLE_UNIT ( ) );
#134 = CARTESIAN_POINT ( 'NONE',  ( 0.0000000000000000000, 0.0000000000000000000, 0.6041170174631701500 ) ) ;
#135 = AXIS2_PLACEMENT_3D ( 'NONE', #148, #147, #146 ) ;
#136 =( LENGTH_UNIT ( ) NAMED_UNIT ( * ) SI_UNIT ( .MILLI., .METRE. ) );
#137 = MECHANICAL_DESIGN_GEOMETRIC_PRESENTATION_REPRESENTATION (  '', ( #96 ), #194 ) ;
#138 = FACE_OUTER_BOUND ( 'NONE', #18, .T. ) ;
#139 = CIRCLE ( 'NONE', #169, 12.69999999999999900 ) ;
#140 = UNCERTAINTY_MEASURE_WITH_UNIT (LENGTH_MEASURE( 1.000000000000000100E-005 ), #94, 'distance_accuracy_value', 'NONE');
#141 = AXIS2_PLACEMENT_3D ( 'NONE', #122, #152, #110 ) ;
#142 = CARTESIAN_POINT ( 'NONE',  ( 0.0000000000000000000, 6.307335025362153200E-015, 1.390000000000002300 ) ) ;
#143 = FILL_AREA_STYLE ('',( #144 ) ) ;
#144 = FILL_AREA_STYLE_COLOUR ( '', #93 ) ;
#145 = CARTESIAN_POINT ( 'NONE',  ( 0.0000000000000000000, 0.0000000000000000000, -1.389999999999999700 ) ) ;
#146 = DIRECTION ( 'NONE',  ( 1.000000000000000000, 0.0000000000000000000, 0.0000000000000000000 ) ) ;
#147 = DIRECTION ( 'NONE',  ( -0.0000000000000000000, -0.0000000000000000000, 1.000000000000000000 ) ) ;
#148 = CARTESIAN_POINT ( 'NONE',  ( 0.0000000000000000000, 0.0000000000000000000, 4.308132045400366600 ) ) ;
#149 = CARTESIAN_POINT ( 'NONE',  ( -12.69999999999999900, 1.555250069354419100E-015, 0.6041170174631701500 ) ) ;
#150 = DIRECTION ( 'NONE',  ( -0.0000000000000000000, -0.0000000000000000000, 1.000000000000000000 ) ) ;
#151 =( NAMED_UNIT ( * ) SI_UNIT ( $, .STERADIAN. ) SOLID_ANGLE_UNIT ( ) );
#152 = DIRECTION ( 'NONE',  ( -0.0000000000000000000, -0.0000000000000000000, 1.000000000000000000 ) ) ;
#153 = SURFACE_STYLE_USAGE ( .BOTH. , #154 ) ;
#154 = SURFACE_SIDE_STYLE ('',( #155 ) ) ;
#155 = SURFACE_STYLE_FILL_AREA ( #143 ) ;
#156 =( NAMED_UNIT ( * ) PLANE_ANGLE_UNIT ( ) SI_UNIT ( $, .RADIAN. ) );
#157 = AXIS2_PLACEMENT_3D ( 'NONE', #177, #176, #175 ) ;
#158 = CIRCLE ( 'NONE', #157, 103.0099999999999900 ) ;
#159 = MECHANICAL_DESIGN_GEOMETRIC_PRESENTATION_REPRESENTATION (  '', ( #123 ), #101 ) ;
#160 = PRESENTATION_LAYER_ASSIGNMENT (  '', '', ( #123 ) ) ;
#161 = VECTOR ( 'NONE', #112, 1000.000000000000000 ) ;
#162 = CARTESIAN_POINT ( 'NONE',  ( 12.69999999999999900, 0.0000000000000000000, 4.308132045400366600 ) ) ;
#163 = CYLINDRICAL_SURFACE ( 'NONE', #141, 12.69999999999999900 ) ;
#164 = LINE ( 'NONE', #162, #161 ) ;
#165 =( LENGTH_UNIT ( ) NAMED_UNIT ( * ) SI_UNIT ( .MILLI., .METRE. ) );
#166 = CIRCLE ( 'NONE', #106, 12.69999999999999900 ) ;
#167 = DIRECTION ( 'NONE',  ( -0.0000000000000000000, -0.0000000000000000000, 1.000000000000000000 ) ) ;
#168 = CARTESIAN_POINT ( 'NONE',  ( 0.0000000000000000000, 0.0000000000000000000, 0.6041170174631701500 ) ) ;
#169 = AXIS2_PLACEMENT_3D ( 'NONE', #168, #167, #117 ) ;
#170 = FACE_OUTER_BOUND ( 'NONE', #63, .T. ) ;
#171 = PRESENTATION_STYLE_ASSIGNMENT (( #172 ) ) ;
#172 = SURFACE_STYLE_USAGE ( .BOTH. , #173 ) ;
#173 = SURFACE_SIDE_STYLE ('',( #174 ) ) ;
#174 = SURFACE_STYLE_FILL_AREA ( #119 ) ;
#175 = DIRECTION ( 'NONE',  ( 0.0000000000000000000, 0.0000000000000000000, -1.000000000000000000 ) ) ;
#176 = DIRECTION ( 'NONE',  ( 1.000000000000000000, 0.0000000000000000000, 0.0000000000000000000 ) ) ;
#177 = CARTESIAN_POINT ( 'NONE',  ( 0.0000000000000000000, 0.0000000000000000000, -101.6199999999999900 ) ) ;
#178 = UNCERTAINTY_MEASURE_WITH_UNIT (LENGTH_MEASURE( 1.000000000000000100E-005 ), #213, 'distance_accuracy_value', 'NONE');
#179 =( NAMED_UNIT ( * ) SI_UNIT ( $, .STERADIAN. ) SOLID_ANGLE_UNIT ( ) );
#180 = COLOUR_RGB ( '',0.9568627450980391500, 0.9490196078431372100, 0.9607843137254902200 ) ;
#181 = PLANE ( 'NONE',  #222 ) ;
#182 = UNCERTAINTY_MEASURE_WITH_UNIT (LENGTH_MEASURE( 1.000000000000000100E-005 ), #196, 'distance_accuracy_value', 'NONE');
#183 = FACE_OUTER_BOUND ( 'NONE', #60, .T. ) ;
#184 = PRESENTATION_LAYER_ASSIGNMENT (  '', '', ( #185 ) ) ;
#185 = STYLED_ITEM ( 'NONE', ( #224 ), #77 ) ;
#186 =( NAMED_UNIT ( * ) PLANE_ANGLE_UNIT ( ) SI_UNIT ( $, .RADIAN. ) );
#187 =( NAMED_UNIT ( * ) SI_UNIT ( $, .STERADIAN. ) SOLID_ANGLE_UNIT ( ) );
#188 =( NAMED_UNIT ( * ) PLANE_ANGLE_UNIT ( ) SI_UNIT ( $, .RADIAN. ) );
#189 = SURFACE_SIDE_STYLE ('',( #190 ) ) ;
#190 = SURFACE_STYLE_FILL_AREA ( #191 ) ;
#191 = FILL_AREA_STYLE ('',( #192 ) ) ;
#192 = FILL_AREA_STYLE_COLOUR ( '', #210 ) ;
#193 = DIRECTION ( 'NONE',  ( 0.0000000000000000000, 1.000000000000000000, 0.0000000000000000000 ) ) ;
#194 =( GEOMETRIC_REPRESENTATION_CONTEXT ( 3 ) GLOBAL_UNCERTAINTY_ASSIGNED_CONTEXT ( ( #207 ) ) GLOBAL_UNIT_ASSIGNED_CONTEXT ( ( #136, #186, #187 ) ) REPRESENTATION_CONTEXT ( 'NONE', 'WORKASPACE' ) );
#195 =( GEOMETRIC_REPRESENTATION_CONTEXT ( 3 ) GLOBAL_UNCERTAINTY_ASSIGNED_CONTEXT ( ( #178 ) ) GLOBAL_UNIT_ASSIGNED_CONTEXT ( ( #213, #188, #179 ) ) REPRESENTATION_CONTEXT ( 'NONE', 'WORKASPACE' ) );
#196 =( LENGTH_UNIT ( ) NAMED_UNIT ( * ) SI_UNIT ( .MILLI., .METRE. ) );
#197 = DIRECTION ( 'NONE',  ( 1.000000000000000000, 0.0000000000000000000, 0.0000000000000000000 ) ) ;
#198 = SURFACE_STYLE_FILL_AREA ( #202 ) ;
#199 = DIRECTION ( 'NONE',  ( 0.0000000000000000000, 1.000000000000000000, 0.0000000000000000000 ) ) ;
#200 = DIRECTION ( 'NONE',  ( -1.000000000000000000, 0.0000000000000000000, 0.0000000000000000000 ) ) ;
#201 = AXIS2_PLACEMENT_3D ( 'NONE', #215, #200, #199 ) ;
#202 = FILL_AREA_STYLE ('',( #204 ) ) ;
#203 =( GEOMETRIC_REPRESENTATION_CONTEXT ( 3 ) GLOBAL_UNCERTAINTY_ASSIGNED_CONTEXT ( ( #182 ) ) GLOBAL_UNIT_ASSIGNED_CONTEXT ( ( #196, #205, #223 ) ) REPRESENTATION_CONTEXT ( 'NONE', 'WORKASPACE' ) );
#204 = FILL_AREA_STYLE_COLOUR ( '', #180 ) ;
#205 =( NAMED_UNIT ( * ) PLANE_ANGLE_UNIT ( ) SI_UNIT ( $, .RADIAN. ) );
#206 = SPHERICAL_SURFACE ( 'NONE', #209, 103.0099999999999900 ) ;
#207 = UNCERTAINTY_MEASURE_WITH_UNIT (LENGTH_MEASURE( 1.000000000000000100E-005 ), #136, 'distance_accuracy_value', 'NONE');
#208 = CARTESIAN_POINT ( 'NONE',  ( 0.0000000000000000000, 0.0000000000000000000, -101.6199999999999900 ) ) ;
#209 = AXIS2_PLACEMENT_3D ( 'NONE', #208, #228, #193 ) ;
#210 = COLOUR_RGB ( '',0.9568627450980391500, 0.9490196078431372100, 0.9607843137254902200 ) ;
#211 = FACE_OUTER_BOUND ( 'NONE', #39, .T. ) ;
#212 = DIRECTION ( 'NONE',  ( 0.0000000000000000000, -0.0000000000000000000, 1.000000000000000000 ) ) ;
#213 =( LENGTH_UNIT ( ) NAMED_UNIT ( * ) SI_UNIT ( .MILLI., .METRE. ) );
#214 = MECHANICAL_DESIGN_GEOMETRIC_PRESENTATION_REPRESENTATION (  '', ( #218 ), #195 ) ;
#215 = CARTESIAN_POINT ( 'NONE',  ( 0.0000000000000000000, 0.0000000000000000000, -101.6199999999999900 ) ) ;
#216 = SPHERICAL_SURFACE ( 'NONE', #201, 103.0099999999999900 ) ;
#217 = PRESENTATION_LAYER_ASSIGNMENT (  '', '', ( #218 ) ) ;
#218 = STYLED_ITEM ( 'NONE', ( #219 ), #83 ) ;
#219 = PRESENTATION_STYLE_ASSIGNMENT (( #220 ) ) ;
#220 = SURFACE_STYLE_USAGE ( .BOTH. , #189 ) ;
#221 = CARTESIAN_POINT ( 'NONE',  ( 0.0000000000000000000, 5.106777152444462700E-016, -1.389999999999999700 ) ) ;
#222 = AXIS2_PLACEMENT_3D ( 'NONE', #221, #212, #197 ) ;
#223 =( NAMED_UNIT ( * ) SI_UNIT ( $, .STERADIAN. ) SOLID_ANGLE_UNIT ( ) );
#224 = PRESENTATION_STYLE_ASSIGNMENT (( #225 ) ) ;
#225 = SURFACE_STYLE_USAGE ( .BOTH. , #226 ) ;
#226 = SURFACE_SIDE_STYLE ('',( #198 ) ) ;
#227 = MECHANICAL_DESIGN_GEOMETRIC_PRESENTATION_REPRESENTATION (  '', ( #185 ), #203 ) ;
#228 = DIRECTION ( 'NONE',  ( -1.000000000000000000, 0.0000000000000000000, 0.0000000000000000000 ) ) ;
#229 =( LENGTH_UNIT ( ) NAMED_UNIT ( * ) SI_UNIT ( .MILLI., .METRE. ) );
#230 = UNCERTAINTY_MEASURE_WITH_UNIT (LENGTH_MEASURE( 1.000000000000000100E-005 ), #246, 'distance_accuracy_value', 'NONE');
#231 =( NAMED_UNIT ( * ) SI_UNIT ( $, .STERADIAN. ) SOLID_ANGLE_UNIT ( ) );
#232 =( NAMED_UNIT ( * ) PLANE_ANGLE_UNIT ( ) SI_UNIT ( $, .RADIAN. ) );
#233 =( GEOMETRIC_REPRESENTATION_CONTEXT ( 3 ) GLOBAL_UNCERTAINTY_ASSIGNED_CONTEXT ( ( #230 ) ) GLOBAL_UNIT_ASSIGNED_CONTEXT ( ( #246, #232, #231 ) ) REPRESENTATION_CONTEXT ( 'NONE', 'WORKASPACE' ) );
#234 =( NAMED_UNIT ( * ) SI_UNIT ( $, .STERADIAN. ) SOLID_ANGLE_UNIT ( ) );
#235 = SURFACE_SIDE_STYLE ('',( #236 ) ) ;
#236 = SURFACE_STYLE_FILL_AREA ( #237 ) ;
#237 = FILL_AREA_STYLE ('',( #238 ) ) ;
#238 = FILL_AREA_STYLE_COLOUR ( '', #249 ) ;
#239 = ADVANCED_BREP_SHAPE_REPRESENTATION ( '4439-E0W', ( #68, #28 ), #248 ) ;
#240 = UNCERTAINTY_MEASURE_WITH_UNIT (LENGTH_MEASURE( 1.000000000000000100E-005 ), #229, 'distance_accuracy_value', 'NONE');
#241 = PRESENTATION_LAYER_ASSIGNMENT (  '', '', ( #242 ) ) ;
#242 = STYLED_ITEM ( 'NONE', ( #243 ), #239 ) ;
#243 = PRESENTATION_STYLE_ASSIGNMENT (( #244 ) ) ;
#244 = SURFACE_STYLE_USAGE ( .BOTH. , #235 ) ;
#245 =( NAMED_UNIT ( * ) PLANE_ANGLE_UNIT ( ) SI_UNIT ( $, .RADIAN. ) );
#246 =( LENGTH_UNIT ( ) NAMED_UNIT ( * ) SI_UNIT ( .MILLI., .METRE. ) );
#247 = MECHANICAL_DESIGN_GEOMETRIC_PRESENTATION_REPRESENTATION (  '', ( #242 ), #233 ) ;
#248 =( GEOMETRIC_REPRESENTATION_CONTEXT ( 3 ) GLOBAL_UNCERTAINTY_ASSIGNED_CONTEXT ( ( #240 ) ) GLOBAL_UNIT_ASSIGNED_CONTEXT ( ( #229, #245, #234 ) ) REPRESENTATION_CONTEXT ( 'NONE', 'WORKASPACE' ) );
#249 = COLOUR_RGB ( '',0.7960784313725489700, 0.8235294117647058400, 0.9372549019607843100 ) ;
#250 = PRODUCT_CONTEXT ( 'NONE', #253, 'mechanical' ) ;
#251 = APPLICATION_PROTOCOL_DEFINITION ( 'draft international standard', 'automotive_design', 1998, #253 ) ;
#252 = PRODUCT_RELATED_PRODUCT_CATEGORY ( 'part', '', ( #254 ) ) ;
#253 = APPLICATION_CONTEXT ( 'automotive_design' ) ;
#254 = PRODUCT ( '4439-E0W', '4439-E0W', '', ( #250 ) ) ;
#255 = PRODUCT_DEFINITION_CONTEXT ( 'detailed design', #257, 'design' ) ;
#256 = APPLICATION_PROTOCOL_DEFINITION ( 'draft international standard', 'automotive_design', 1998, #257 ) ;
#257 = APPLICATION_CONTEXT ( 'automotive_design' ) ;
#258 = PRODUCT_DEFINITION_FORMATION_WITH_SPECIFIED_SOURCE ( 'ANY', '', #254, .NOT_KNOWN. ) ;
#259 = PRODUCT_DEFINITION ( 'UNKNOWN', '', #258, #255 ) ;
#260 = SHAPE_DEFINITION_REPRESENTATION ( #261, #239 ) ;
#261 = PRODUCT_DEFINITION_SHAPE ( 'NONE', 'NONE',  #259 ) ;
ENDSEC;
END-ISO-10303-21;
