ISO-10303-21;
HEADER;
FILE_DESCRIPTION (( 'STEP AP203' ),
    '1' );
FILE_NAME ('25007-E0W.STEP',
    '2015-04-28T20:39:06',
    ( 'Admin' ),
    ( '' ),
    'SwSTEP 2.0',
    'SolidWorks 2014',
    '' );
FILE_SCHEMA (( 'CONFIG_CONTROL_DESIGN' ));
ENDSEC;

DATA;
#1 = CIRCLE ( 'NONE', #6, 115.0199999999999700 ) ;
#2 = CC_DESIGN_DATE_AND_TIME_ASSIGNMENT ( #64, #71, ( #37 ) ) ;
#3 = AXIS2_PLACEMENT_3D ( 'NONE', #34, #53, #12 ) ;
#4 = EDGE_LOOP ( 'NONE', ( #101, #43, #96, #57 ) ) ;
#5 = FACE_OUTER_BOUND ( 'NONE', #4, .T. ) ;
#6 = AXIS2_PLACEMENT_3D ( 'NONE', #89, #77, #70 ) ;
#7 = DATE_AND_TIME ( #198, #67 ) ;
#8 = ORIENTED_EDGE ( 'NONE', *, *, #183, .T. ) ;
#9 = PRODUCT ( '25007-E0W', '25007-E0W', '', ( #24 ) ) ;
#10 = PERSON ( 'UNSPECIFIED', 'UNSPECIFIED', 'UNSPECIFIED', ('UNSPECIFIED'), ('UNSPECIFIED'), ('UNSPECIFIED') ) ;
#11 = ORIENTED_EDGE ( 'NONE', *, *, #20, .T. ) ;
#12 = DIRECTION ( 'NONE',  ( 1.000000000000000000, 0.0000000000000000000, 0.0000000000000000000 ) ) ;
#13 = CC_DESIGN_APPROVAL ( #82, ( #37 ) ) ;
#14 = PERSON_AND_ORGANIZATION ( #10, #159 ) ;
#15 = ORIENTED_EDGE ( 'NONE', *, *, #20, .F. ) ;
#16 = AXIS2_PLACEMENT_3D ( 'NONE', #131, #174, #139 ) ;
#17 = COORDINATED_UNIVERSAL_TIME_OFFSET ( 5, 0, .BEHIND. ) ;
#18 = APPROVAL_ROLE ( '' ) ;
#19 = DIRECTION ( 'NONE',  ( 1.000000000000000000, 0.0000000000000000000, 0.0000000000000000000 ) ) ;
#20 = EDGE_CURVE ( 'NONE', #134, #75, #1, .T. ) ;
#21 = CC_DESIGN_DATE_AND_TIME_ASSIGNMENT ( #106, #120, ( #23 ) ) ;
#22 = ORIENTED_EDGE ( 'NONE', *, *, #147, .F. ) ;
#23 = SECURITY_CLASSIFICATION ( '', '', #103 ) ;
#24 = MECHANICAL_CONTEXT ( 'NONE', #137, 'mechanical' ) ;
#25 = EDGE_CURVE ( 'NONE', #134, #201, #169, .T. ) ;
#26 = ORIENTED_EDGE ( 'NONE', *, *, #123, .F. ) ;
#27 =( GEOMETRIC_REPRESENTATION_CONTEXT ( 3 ) GLOBAL_UNCERTAINTY_ASSIGNED_CONTEXT ( ( #72 ) ) GLOBAL_UNIT_ASSIGNED_CONTEXT ( ( #180, #200, #133 ) ) REPRESENTATION_CONTEXT ( 'NONE', 'WORKASPACE' ) );
#28 = CC_DESIGN_APPROVAL ( #38, ( #189 ) ) ;
#29 = PERSON_AND_ORGANIZATION_ROLE ( 'design_owner' ) ;
#30 = FACE_OUTER_BOUND ( 'NONE', #128, .T. ) ;
#31 = CARTESIAN_POINT ( 'NONE',  ( 12.69999999999999900, 0.0000000000000000000, -1.349999999999997000 ) ) ;
#32 = AXIS2_PLACEMENT_3D ( 'NONE', #98, #41, #74 ) ;
#33 = PERSON_AND_ORGANIZATION ( #10, #159 ) ;
#34 = CARTESIAN_POINT ( 'NONE',  ( 0.0000000000000000000, 0.0000000000000000000, 39.55484952932686600 ) ) ;
#35 = PERSON_AND_ORGANIZATION ( #10, #159 ) ;
#36 = FACE_OUTER_BOUND ( 'NONE', #186, .T. ) ;
#37 = PRODUCT_DEFINITION ( 'UNKNOWN', '', #189, #182 ) ;
#38 = APPROVAL ( #78, 'UNSPECIFIED' ) ;
#39 = ORIENTED_EDGE ( 'NONE', *, *, #147, .T. ) ;
#40 = APPLICATION_PROTOCOL_DEFINITION ( 'international standard', 'config_control_design', 1994, #188 ) ;
#41 = DIRECTION ( 'NONE',  ( -0.0000000000000000000, -0.0000000000000000000, 1.000000000000000000 ) ) ;
#42 = COORDINATED_UNIVERSAL_TIME_OFFSET ( 5, 0, .BEHIND. ) ;
#43 = ORIENTED_EDGE ( 'NONE', *, *, #123, .T. ) ;
#44 = APPROVAL_ROLE ( '' ) ;
#45 = CARTESIAN_POINT ( 'NONE',  ( 0.0000000000000000000, 0.0000000000000000000, 0.6499999999999978000 ) ) ;
#46 = CC_DESIGN_PERSON_AND_ORGANIZATION_ASSIGNMENT ( #33, #29, ( #9 ) ) ;
#47 = ADVANCED_FACE ( 'NONE', ( #5 ), #86, .T. ) ;
#48 = TOROIDAL_SURFACE ( 'NONE', #88, 0.02960650923488229000, 115.0199999999999700 ) ;
#49 = APPROVAL ( #196, 'UNSPECIFIED' ) ;
#50 = DIRECTION ( 'NONE',  ( 1.000000000000000000, 0.0000000000000000000, 0.0000000000000000000 ) ) ;
#51 = AXIS2_PLACEMENT_3D ( 'NONE', #175, #145, #84 ) ;
#52 = APPROVAL_STATUS ( 'not_yet_approved' ) ;
#53 = DIRECTION ( 'NONE',  ( -0.0000000000000000000, -0.0000000000000000000, 1.000000000000000000 ) ) ;
#54 = DATE_AND_TIME ( #63, #109 ) ;
#55 = DIRECTION ( 'NONE',  ( -0.0000000000000000000, -0.0000000000000000000, 1.000000000000000000 ) ) ;
#56 = CARTESIAN_POINT ( 'NONE',  ( 0.0000000000000000000, 0.0000000000000000000, -1.349999999999997000 ) ) ;
#57 = ORIENTED_EDGE ( 'NONE', *, *, #183, .F. ) ;
#58 = APPROVAL_DATE_TIME ( #54, #82 ) ;
#59 = CARTESIAN_POINT ( 'NONE',  ( 0.0000000000000000000, 0.0000000000000000000, 1.350000000000000500 ) ) ;
#60 = CLOSED_SHELL ( 'NONE', ( #47, #135, #184, #81, #107 ) ) ;
#61 = PERSON_AND_ORGANIZATION ( #10, #159 ) ;
#62 = PLANE ( 'NONE',  #51 ) ;
#63 = CALENDAR_DATE ( 2015, 28, 4 ) ;
#64 = DATE_AND_TIME ( #192, #172 ) ;
#65 = APPROVAL_PERSON_ORGANIZATION ( #35, #82, #44 ) ;
#66 = CIRCLE ( 'NONE', #121, 12.69999999999999900 ) ;
#67 = LOCAL_TIME ( 16, 39, 6.000000000000000000, #146 ) ;
#68 = CARTESIAN_POINT ( 'NONE',  ( 0.0000000000000000000, 0.0000000000000000000, 39.55484952932686600 ) ) ;
#69 = PERSON_AND_ORGANIZATION_ROLE ( 'creator' ) ;
#70 = DIRECTION ( 'NONE',  ( 0.0000000000000000000, 0.0000000000000000000, -1.000000000000000000 ) ) ;
#71 = DATE_TIME_ROLE ( 'creation_date' ) ;
#72 = UNCERTAINTY_MEASURE_WITH_UNIT (LENGTH_MEASURE( 1.000000000000000100E-005 ), #180, 'distance_accuracy_value', 'NONE');
#73 = PERSON_AND_ORGANIZATION ( #10, #159 ) ;
#74 = DIRECTION ( 'NONE',  ( 1.000000000000000000, 0.0000000000000000000, 0.0000000000000000000 ) ) ;
#75 = VERTEX_POINT ( 'NONE', #59 ) ;
#76 = PERSON_AND_ORGANIZATION_ROLE ( 'design_supplier' ) ;
#77 = DIRECTION ( 'NONE',  ( 0.0000000000000000000, -1.000000000000000000, 0.0000000000000000000 ) ) ;
#78 = APPROVAL_STATUS ( 'not_yet_approved' ) ;
#79 = EDGE_CURVE ( 'NONE', #201, #134, #92, .T. ) ;
#80 = VECTOR ( 'NONE', #143, 1000.000000000000000 ) ;
#81 = ADVANCED_FACE ( 'NONE', ( #132 ), #62, .F. ) ;
#82 = APPROVAL ( #52, 'UNSPECIFIED' ) ;
#83 = LOCAL_TIME ( 16, 39, 6.000000000000000000, #17 ) ;
#84 = DIRECTION ( 'NONE',  ( 1.000000000000000000, 0.0000000000000000000, 0.0000000000000000000 ) ) ;
#85 = PERSON_AND_ORGANIZATION ( #10, #159 ) ;
#86 = CYLINDRICAL_SURFACE ( 'NONE', #162, 12.69999999999999900 ) ;
#87 = APPROVAL_DATE_TIME ( #7, #38 ) ;
#88 = AXIS2_PLACEMENT_3D ( 'NONE', #140, #160, #168 ) ;
#89 = CARTESIAN_POINT ( 'NONE',  ( 0.02960650923488229000, 0.0000000000000000000, -113.6699961895956800 ) ) ;
#90 = SHAPE_DEFINITION_REPRESENTATION ( #154, #191 ) ;
#91 = EDGE_LOOP ( 'NONE', ( #26, #119, #8, #124 ) ) ;
#92 = CIRCLE ( 'NONE', #118, 12.69999999999999900 ) ;
#93 = CC_DESIGN_PERSON_AND_ORGANIZATION_ASSIGNMENT ( #14, #94, ( #189 ) ) ;
#94 = PERSON_AND_ORGANIZATION_ROLE ( 'creator' ) ;
#95 = ORIENTED_EDGE ( 'NONE', *, *, #79, .T. ) ;
#96 = ORIENTED_EDGE ( 'NONE', *, *, #25, .F. ) ;
#97 = AXIS2_PLACEMENT_3D ( 'NONE', #115, #112, #111 ) ;
#98 = CARTESIAN_POINT ( 'NONE',  ( 0.0000000000000000000, 0.0000000000000000000, 0.6499999999999978000 ) ) ;
#99 = CYLINDRICAL_SURFACE ( 'NONE', #3, 12.69999999999999900 ) ;
#100 = AXIS2_PLACEMENT_3D ( 'NONE', #129, #165, #138 ) ;
#101 = ORIENTED_EDGE ( 'NONE', *, *, #105, .T. ) ;
#102 = CC_DESIGN_SECURITY_CLASSIFICATION ( #23, ( #189 ) ) ;
#103 = SECURITY_CLASSIFICATION_LEVEL ( 'unclassified' ) ;
#104 = PERSON_AND_ORGANIZATION ( #10, #159 ) ;
#105 = EDGE_CURVE ( 'NONE', #116, #130, #66, .T. ) ;
#106 = DATE_AND_TIME ( #179, #187 ) ;
#107 = ADVANCED_FACE ( 'NONE', ( #150 ), #99, .T. ) ;
#108 = ORIENTED_EDGE ( 'NONE', *, *, #25, .T. ) ;
#109 = LOCAL_TIME ( 16, 39, 6.000000000000000000, #42 ) ;
#110 = PERSON_AND_ORGANIZATION_ROLE ( 'classification_officer' ) ;
#111 = DIRECTION ( 'NONE',  ( 1.000000000000000000, 0.0000000000000000000, 0.0000000000000000000 ) ) ;
#112 = DIRECTION ( 'NONE',  ( 0.0000000000000000000, 0.0000000000000000000, 1.000000000000000000 ) ) ;
#113 = DIRECTION ( 'NONE',  ( -0.0000000000000000000, -0.0000000000000000000, 1.000000000000000000 ) ) ;
#114 = COORDINATED_UNIVERSAL_TIME_OFFSET ( 5, 0, .BEHIND. ) ;
#115 = CARTESIAN_POINT ( 'NONE',  ( 0.0000000000000000000, 0.0000000000000000000, 0.0000000000000000000 ) ) ;
#116 = VERTEX_POINT ( 'NONE', #31 ) ;
#117 = PERSON_AND_ORGANIZATION ( #10, #159 ) ;
#118 = AXIS2_PLACEMENT_3D ( 'NONE', #45, #113, #178 ) ;
#119 = ORIENTED_EDGE ( 'NONE', *, *, #166, .T. ) ;
#120 = DATE_TIME_ROLE ( 'classification_date' ) ;
#121 = AXIS2_PLACEMENT_3D ( 'NONE', #56, #181, #19 ) ;
#122 = APPLICATION_PROTOCOL_DEFINITION ( 'international standard', 'config_control_design', 1994, #137 ) ;
#123 = EDGE_CURVE ( 'NONE', #130, #201, #197, .T. ) ;
#124 = ORIENTED_EDGE ( 'NONE', *, *, #79, .F. ) ;
#125 = CIRCLE ( 'NONE', #171, 115.0199999999999700 ) ;
#126 = DIRECTION ( 'NONE',  ( 1.224646799147353200E-016, 1.000000000000000000, 0.0000000000000000000 ) ) ;
#127 = CC_DESIGN_PERSON_AND_ORGANIZATION_ASSIGNMENT ( #85, #76, ( #189 ) ) ;
#128 = EDGE_LOOP ( 'NONE', ( #22, #95, #11 ) ) ;
#129 = CARTESIAN_POINT ( 'NONE',  ( 0.0000000000000000000, 0.0000000000000000000, -1.349999999999997000 ) ) ;
#130 = VERTEX_POINT ( 'NONE', #195 ) ;
#131 = CARTESIAN_POINT ( 'NONE',  ( 0.0000000000000000000, 0.0000000000000000000, -113.6699961895956800 ) ) ;
#132 = FACE_OUTER_BOUND ( 'NONE', #158, .T. ) ;
#133 =( NAMED_UNIT ( * ) SI_UNIT ( $, .STERADIAN. ) SOLID_ANGLE_UNIT ( ) );
#134 = VERTEX_POINT ( 'NONE', #170 ) ;
#135 = ADVANCED_FACE ( 'NONE', ( #36 ), #149, .T. ) ;
#136 = CC_DESIGN_PERSON_AND_ORGANIZATION_ASSIGNMENT ( #61, #69, ( #37 ) ) ;
#137 = APPLICATION_CONTEXT ( 'configuration controlled 3d designs of mechanical parts and assemblies' ) ;
#138 = DIRECTION ( 'NONE',  ( 1.000000000000000000, 0.0000000000000000000, 0.0000000000000000000 ) ) ;
#139 = DIRECTION ( 'NONE',  ( 1.000000000000000000, 0.0000000000000000000, 0.0000000000000000000 ) ) ;
#140 = CARTESIAN_POINT ( 'NONE',  ( 0.0000000000000000000, 0.0000000000000000000, -113.6699961895956800 ) ) ;
#141 = VECTOR ( 'NONE', #163, 1000.000000000000000 ) ;
#142 = LINE ( 'NONE', #157, #80 ) ;
#143 = DIRECTION ( 'NONE',  ( -0.0000000000000000000, -0.0000000000000000000, 1.000000000000000000 ) ) ;
#144 = DIRECTION ( 'NONE',  ( -1.000000000000000000, 1.224646799147353200E-016, 0.0000000000000000000 ) ) ;
#145 = DIRECTION ( 'NONE',  ( 0.0000000000000000000, -0.0000000000000000000, 1.000000000000000000 ) ) ;
#146 = COORDINATED_UNIVERSAL_TIME_OFFSET ( 5, 0, .BEHIND. ) ;
#147 = EDGE_CURVE ( 'NONE', #201, #75, #125, .T. ) ;
#148 = CARTESIAN_POINT ( 'NONE',  ( -0.02960650923488229000, 3.625751676842514600E-018, -113.6699961895956800 ) ) ;
#149 = TOROIDAL_SURFACE ( 'NONE', #16, 0.02960650923488229000, 115.0199999999999700 ) ;
#150 = FACE_OUTER_BOUND ( 'NONE', #91, .T. ) ;
#151 = CC_DESIGN_PERSON_AND_ORGANIZATION_ASSIGNMENT ( #104, #110, ( #23 ) ) ;
#152 = ORIENTED_EDGE ( 'NONE', *, *, #105, .F. ) ;
#153 = PRODUCT_RELATED_PRODUCT_CATEGORY ( 'detail', '', ( #9 ) ) ;
#154 = PRODUCT_DEFINITION_SHAPE ( 'NONE', 'NONE',  #37 ) ;
#155 = COORDINATED_UNIVERSAL_TIME_OFFSET ( 5, 0, .BEHIND. ) ;
#156 = ORIENTED_EDGE ( 'NONE', *, *, #166, .F. ) ;
#157 = CARTESIAN_POINT ( 'NONE',  ( 12.69999999999999900, 0.0000000000000000000, 39.55484952932686600 ) ) ;
#158 = EDGE_LOOP ( 'NONE', ( #152, #156 ) ) ;
#159 = ORGANIZATION ( 'UNSPECIFIED', 'UNSPECIFIED', '' ) ;
#160 = DIRECTION ( 'NONE',  ( -0.0000000000000000000, -0.0000000000000000000, 1.000000000000000000 ) ) ;
#161 = CARTESIAN_POINT ( 'NONE',  ( -12.69999999999999900, 1.555301434917138400E-015, 39.55484952932686600 ) ) ;
#162 = AXIS2_PLACEMENT_3D ( 'NONE', #68, #55, #50 ) ;
#163 = DIRECTION ( 'NONE',  ( -0.0000000000000000000, -0.0000000000000000000, 1.000000000000000000 ) ) ;
#164 = APPROVAL_PERSON_ORGANIZATION ( #73, #38, #18 ) ;
#165 = DIRECTION ( 'NONE',  ( -0.0000000000000000000, -0.0000000000000000000, 1.000000000000000000 ) ) ;
#166 = EDGE_CURVE ( 'NONE', #130, #116, #185, .T. ) ;
#167 = MANIFOLD_SOLID_BREP ( '25007-001-1-solid1', #60 ) ;
#168 = DIRECTION ( 'NONE',  ( 1.000000000000000000, 0.0000000000000000000, 0.0000000000000000000 ) ) ;
#169 = CIRCLE ( 'NONE', #32, 12.69999999999999900 ) ;
#170 = CARTESIAN_POINT ( 'NONE',  ( 12.69999999999998300, 0.0000000000000000000, 0.6499999999999978000 ) ) ;
#171 = AXIS2_PLACEMENT_3D ( 'NONE', #148, #126, #144 ) ;
#172 = LOCAL_TIME ( 16, 39, 6.000000000000000000, #114 ) ;
#173 = CALENDAR_DATE ( 2015, 28, 4 ) ;
#174 = DIRECTION ( 'NONE',  ( -0.0000000000000000000, -0.0000000000000000000, 1.000000000000000000 ) ) ;
#175 = CARTESIAN_POINT ( 'NONE',  ( 0.0000000000000000000, 0.0000000000000000000, -1.350000000000000300 ) ) ;
#176 = APPROVAL_PERSON_ORGANIZATION ( #117, #49, #199 ) ;
#177 = CARTESIAN_POINT ( 'NONE',  ( -12.69999999999998300, 1.555301434917136700E-015, 0.6499999999999978000 ) ) ;
#178 = DIRECTION ( 'NONE',  ( 1.000000000000000000, 0.0000000000000000000, 0.0000000000000000000 ) ) ;
#179 = CALENDAR_DATE ( 2015, 28, 4 ) ;
#180 =( LENGTH_UNIT ( ) NAMED_UNIT ( * ) SI_UNIT ( .MILLI., .METRE. ) );
#181 = DIRECTION ( 'NONE',  ( -0.0000000000000000000, -0.0000000000000000000, 1.000000000000000000 ) ) ;
#182 = DESIGN_CONTEXT ( 'detailed design', #188, 'design' ) ;
#183 = EDGE_CURVE ( 'NONE', #116, #134, #142, .T. ) ;
#184 = ADVANCED_FACE ( 'NONE', ( #30 ), #48, .T. ) ;
#185 = CIRCLE ( 'NONE', #100, 12.69999999999999900 ) ;
#186 = EDGE_LOOP ( 'NONE', ( #108, #39, #15 ) ) ;
#187 = LOCAL_TIME ( 16, 39, 6.000000000000000000, #155 ) ;
#188 = APPLICATION_CONTEXT ( 'configuration controlled 3d designs of mechanical parts and assemblies' ) ;
#189 = PRODUCT_DEFINITION_FORMATION_WITH_SPECIFIED_SOURCE ( 'ANY', '', #9, .NOT_KNOWN. ) ;
#190 = CC_DESIGN_APPROVAL ( #49, ( #23 ) ) ;
#191 = ADVANCED_BREP_SHAPE_REPRESENTATION ( '25007-E0W', ( #167, #97 ), #27 ) ;
#192 = CALENDAR_DATE ( 2015, 28, 4 ) ;
#193 = APPROVAL_DATE_TIME ( #194, #49 ) ;
#194 = DATE_AND_TIME ( #173, #83 ) ;
#195 = CARTESIAN_POINT ( 'NONE',  ( -12.69999999999999900, 1.555301434917138400E-015, -1.349999999999997000 ) ) ;
#196 = APPROVAL_STATUS ( 'not_yet_approved' ) ;
#197 = LINE ( 'NONE', #161, #141 ) ;
#198 = CALENDAR_DATE ( 2015, 28, 4 ) ;
#199 = APPROVAL_ROLE ( '' ) ;
#200 =( NAMED_UNIT ( * ) PLANE_ANGLE_UNIT ( ) SI_UNIT ( $, .RADIAN. ) );
#201 = VERTEX_POINT ( 'NONE', #177 ) ;
ENDSEC;
END-ISO-10303-21;
