ISO-10303-21;
HEADER;
FILE_DESCRIPTION (( 'STEP AP203' ),
    '1' );
FILE_NAME ('Web Model 48448.STEP',
    '2017-01-31T15:21:26',
    ( '' ),
    ( '' ),
    'SwSTEP 2.0',
    'SolidWorks 2016',
    '' );
FILE_SCHEMA (( 'CONFIG_CONTROL_DESIGN' ));
ENDSEC;

DATA;
#1 = APPROVAL_DATE_TIME ( #87, #26 ) ;
#2 = CC_DESIGN_DATE_AND_TIME_ASSIGNMENT ( #163, #129, ( #123 ) ) ;
#3 = APPROVAL_DATE_TIME ( #126, #101 ) ;
#4 = ORIENTED_EDGE ( 'NONE', *, *, #158, .T. ) ;
#5 = PERSON ( 'UNSPECIFIED', 'UNSPECIFIED', 'UNSPECIFIED', ('UNSPECIFIED'), ('UNSPECIFIED'), ('UNSPECIFIED') ) ;
#6 = ADVANCED_BREP_SHAPE_REPRESENTATION ( 'Web Model 48448', ( #46, #145 ), #135 ) ;
#7 = APPROVAL_PERSON_ORGANIZATION ( #173, #101, #25 ) ;
#8 = CARTESIAN_POINT ( 'NONE',  ( 0.0000000000000000000, 0.0000000000000000000, -2.000000000000000000 ) ) ;
#9 = CYLINDRICAL_SURFACE ( 'NONE', #68, 2.500000000000000000 ) ;
#10 = DIRECTION ( 'NONE',  ( 1.000000000000000000, 0.0000000000000000000, 0.0000000000000000000 ) ) ;
#11 = DIRECTION ( 'NONE',  ( 0.0000000000000000000, 0.0000000000000000000, 1.000000000000000000 ) ) ;
#12 = PERSON_AND_ORGANIZATION_ROLE ( 'creator' ) ;
#13 = AXIS2_PLACEMENT_3D ( 'NONE', #171, #136, #10 ) ;
#14 = FACE_OUTER_BOUND ( 'NONE', #109, .T. ) ;
#15 = DIRECTION ( 'NONE',  ( 0.0000000000000000000, 0.0000000000000000000, 1.000000000000000000 ) ) ;
#16 = ORIENTED_EDGE ( 'NONE', *, *, #137, .T. ) ;
#17 = AXIS2_PLACEMENT_3D ( 'NONE', #8, #11, #103 ) ;
#18 = CLOSED_SHELL ( 'NONE', ( #110, #162, #55, #120 ) ) ;
#19 = APPROVAL ( #107, 'UNSPECIFIED' ) ;
#20 = LINE ( 'NONE', #155, #167 ) ;
#21 = PERSON_AND_ORGANIZATION ( #5, #122 ) ;
#22 = CARTESIAN_POINT ( 'NONE',  ( 0.0000000000000000000, 0.0000000000000000000, -2.000000000000000000 ) ) ;
#23 = COORDINATED_UNIVERSAL_TIME_OFFSET ( 5, 0, .BEHIND. ) ;
#24 = DIRECTION ( 'NONE',  ( 1.000000000000000000, 0.0000000000000000000, 0.0000000000000000000 ) ) ;
#25 = APPROVAL_ROLE ( '' ) ;
#26 = APPROVAL ( #141, 'UNSPECIFIED' ) ;
#27 = PERSON_AND_ORGANIZATION_ROLE ( 'creator' ) ;
#28 = CC_DESIGN_PERSON_AND_ORGANIZATION_ASSIGNMENT ( #142, #159, ( #71 ) ) ;
#29 = ORIENTED_EDGE ( 'NONE', *, *, #158, .F. ) ;
#30 = AXIS2_PLACEMENT_3D ( 'NONE', #140, #113, #50 ) ;
#31 = PERSON_AND_ORGANIZATION ( #5, #122 ) ;
#32 = LINE ( 'NONE', #95, #47 ) ;
#33 = CARTESIAN_POINT ( 'NONE',  ( -2.500000000000000000, 3.061616997868383100E-016, 0.0000000000000000000 ) ) ;
#34 =( NAMED_UNIT ( * ) SI_UNIT ( $, .STERADIAN. ) SOLID_ANGLE_UNIT ( ) );
#35 = LOCAL_TIME ( 10, 21, 26.00000000000000000, #62 ) ;
#36 = DIRECTION ( 'NONE',  ( 1.000000000000000000, 0.0000000000000000000, 0.0000000000000000000 ) ) ;
#37 = PERSON_AND_ORGANIZATION_ROLE ( 'design_supplier' ) ;
#38 = CC_DESIGN_DATE_AND_TIME_ASSIGNMENT ( #42, #172, ( #71 ) ) ;
#39 = COORDINATED_UNIVERSAL_TIME_OFFSET ( 5, 0, .BEHIND. ) ;
#40 = LOCAL_TIME ( 10, 21, 26.00000000000000000, #144 ) ;
#41 = APPLICATION_PROTOCOL_DEFINITION ( 'international standard', 'config_control_design', 1994, #51 ) ;
#42 = DATE_AND_TIME ( #165, #111 ) ;
#43 = FACE_OUTER_BOUND ( 'NONE', #157, .T. ) ;
#44 = VERTEX_POINT ( 'NONE', #127 ) ;
#45 = EDGE_CURVE ( 'NONE', #143, #148, #100, .T. ) ;
#46 = MANIFOLD_SOLID_BREP ( 'Extrude1', #18 ) ;
#47 = VECTOR ( 'NONE', #61, 1000.000000000000000 ) ;
#48 = CARTESIAN_POINT ( 'NONE',  ( 0.0000000000000000000, 0.0000000000000000000, 0.0000000000000000000 ) ) ;
#49 = CC_DESIGN_PERSON_AND_ORGANIZATION_ASSIGNMENT ( #67, #37, ( #160 ) ) ;
#50 = DIRECTION ( 'NONE',  ( 1.000000000000000000, 0.0000000000000000000, 0.0000000000000000000 ) ) ;
#51 = APPLICATION_CONTEXT ( 'configuration controlled 3d designs of mechanical parts and assemblies' ) ;
#52 = ORIENTED_EDGE ( 'NONE', *, *, #66, .F. ) ;
#53 = SHAPE_DEFINITION_REPRESENTATION ( #149, #6 ) ;
#54 = CC_DESIGN_APPROVAL ( #101, ( #71 ) ) ;
#55 = ADVANCED_FACE ( 'NONE', ( #14 ), #94, .F. ) ;
#56 = FACE_OUTER_BOUND ( 'NONE', #97, .T. ) ;
#57 = AXIS2_PLACEMENT_3D ( 'NONE', #102, #156, #93 ) ;
#58 = EDGE_CURVE ( 'NONE', #139, #44, #70, .T. ) ;
#59 = LOCAL_TIME ( 10, 21, 26.00000000000000000, #98 ) ;
#60 = DIRECTION ( 'NONE',  ( 0.0000000000000000000, 0.0000000000000000000, 1.000000000000000000 ) ) ;
#61 = DIRECTION ( 'NONE',  ( 0.0000000000000000000, 0.0000000000000000000, 1.000000000000000000 ) ) ;
#62 = COORDINATED_UNIVERSAL_TIME_OFFSET ( 5, 0, .BEHIND. ) ;
#63 =( LENGTH_UNIT ( ) NAMED_UNIT ( * ) SI_UNIT ( .MILLI., .METRE. ) );
#64 = CC_DESIGN_SECURITY_CLASSIFICATION ( #71, ( #160 ) ) ;
#65 = DATE_AND_TIME ( #104, #69 ) ;
#66 = EDGE_CURVE ( 'NONE', #44, #139, #121, .T. ) ;
#67 = PERSON_AND_ORGANIZATION ( #5, #122 ) ;
#68 = AXIS2_PLACEMENT_3D ( 'NONE', #89, #138, #36 ) ;
#69 = LOCAL_TIME ( 10, 21, 26.00000000000000000, #23 ) ;
#70 = CIRCLE ( 'NONE', #13, 2.500000000000000000 ) ;
#71 = SECURITY_CLASSIFICATION ( '', '', #175 ) ;
#72 = PLANE ( 'NONE',  #57 ) ;
#73 = APPLICATION_PROTOCOL_DEFINITION ( 'international standard', 'config_control_design', 1994, #153 ) ;
#74 = ORIENTED_EDGE ( 'NONE', *, *, #58, .T. ) ;
#75 = CC_DESIGN_PERSON_AND_ORGANIZATION_ASSIGNMENT ( #31, #27, ( #123 ) ) ;
#76 = DIRECTION ( 'NONE',  ( 0.0000000000000000000, 0.0000000000000000000, 1.000000000000000000 ) ) ;
#77 =( NAMED_UNIT ( * ) PLANE_ANGLE_UNIT ( ) SI_UNIT ( $, .RADIAN. ) );
#78 = PERSON_AND_ORGANIZATION ( #5, #122 ) ;
#79 = FACE_OUTER_BOUND ( 'NONE', #130, .T. ) ;
#80 = PERSON_AND_ORGANIZATION_ROLE ( 'design_owner' ) ;
#81 = APPROVAL_STATUS ( 'not_yet_approved' ) ;
#82 = AXIS2_PLACEMENT_3D ( 'NONE', #92, #169, #170 ) ;
#83 = ORIENTED_EDGE ( 'NONE', *, *, #99, .F. ) ;
#84 = PERSON_AND_ORGANIZATION ( #5, #122 ) ;
#85 = APPROVAL_PERSON_ORGANIZATION ( #21, #26, #106 ) ;
#86 = AXIS2_PLACEMENT_3D ( 'NONE', #22, #116, #168 ) ;
#87 = DATE_AND_TIME ( #152, #40 ) ;
#88 = CALENDAR_DATE ( 2017, 31, 1 ) ;
#89 = CARTESIAN_POINT ( 'NONE',  ( 0.0000000000000000000, 0.0000000000000000000, -2.000000000000000000 ) ) ;
#90 = PRODUCT_RELATED_PRODUCT_CATEGORY ( 'detail', '', ( #164 ) ) ;
#91 = PERSON_AND_ORGANIZATION ( #5, #122 ) ;
#92 = CARTESIAN_POINT ( 'NONE',  ( 0.0000000000000000000, 0.0000000000000000000, 0.0000000000000000000 ) ) ;
#93 = DIRECTION ( 'NONE',  ( 1.000000000000000000, 0.0000000000000000000, -0.0000000000000000000 ) ) ;
#94 = PLANE ( 'NONE',  #147 ) ;
#95 = CARTESIAN_POINT ( 'NONE',  ( 2.500000000000000000, 0.0000000000000000000, -2.000000000000000000 ) ) ;
#96 = APPROVAL_ROLE ( '' ) ;
#97 = EDGE_LOOP ( 'NONE', ( #112, #4, #134, #125 ) ) ;
#98 = COORDINATED_UNIVERSAL_TIME_OFFSET ( 5, 0, .BEHIND. ) ;
#99 = EDGE_CURVE ( 'NONE', #148, #143, #150, .T. ) ;
#100 = CIRCLE ( 'NONE', #82, 2.500000000000000000 ) ;
#101 = APPROVAL ( #81, 'UNSPECIFIED' ) ;
#102 = CARTESIAN_POINT ( 'NONE',  ( 0.0000000000000000000, 0.0000000000000000000, 0.0000000000000000000 ) ) ;
#103 = DIRECTION ( 'NONE',  ( 1.000000000000000000, 0.0000000000000000000, 0.0000000000000000000 ) ) ;
#104 = CALENDAR_DATE ( 2017, 31, 1 ) ;
#105 = CARTESIAN_POINT ( 'NONE',  ( 2.500000000000000000, 0.0000000000000000000, 0.0000000000000000000 ) ) ;
#106 = APPROVAL_ROLE ( '' ) ;
#107 = APPROVAL_STATUS ( 'not_yet_approved' ) ;
#108 = CC_DESIGN_PERSON_AND_ORGANIZATION_ASSIGNMENT ( #84, #12, ( #160 ) ) ;
#109 = EDGE_LOOP ( 'NONE', ( #52, #115 ) ) ;
#110 = ADVANCED_FACE ( 'NONE', ( #56 ), #9, .T. ) ;
#111 = LOCAL_TIME ( 10, 21, 26.00000000000000000, #39 ) ;
#112 = ORIENTED_EDGE ( 'NONE', *, *, #66, .T. ) ;
#113 = DIRECTION ( 'NONE',  ( 0.0000000000000000000, 0.0000000000000000000, 1.000000000000000000 ) ) ;
#114 = CARTESIAN_POINT ( 'NONE',  ( -2.500000000000000000, 3.061616997868383100E-016, -2.000000000000000000 ) ) ;
#115 = ORIENTED_EDGE ( 'NONE', *, *, #58, .F. ) ;
#116 = DIRECTION ( 'NONE',  ( 0.0000000000000000000, 0.0000000000000000000, 1.000000000000000000 ) ) ;
#117 = MECHANICAL_CONTEXT ( 'NONE', #153, 'mechanical' ) ;
#118 = ORIENTED_EDGE ( 'NONE', *, *, #45, .T. ) ;
#119 = ORIENTED_EDGE ( 'NONE', *, *, #99, .T. ) ;
#120 = ADVANCED_FACE ( 'NONE', ( #43 ), #72, .T. ) ;
#121 = CIRCLE ( 'NONE', #17, 2.500000000000000000 ) ;
#122 = ORGANIZATION ( 'UNSPECIFIED', 'UNSPECIFIED', '' ) ;
#123 = PRODUCT_DEFINITION ( 'UNKNOWN', '', #160, #128 ) ;
#124 = UNCERTAINTY_MEASURE_WITH_UNIT (LENGTH_MEASURE( 1.000000000000000100E-005 ), #63, 'distance_accuracy_value', 'NONE');
#125 = ORIENTED_EDGE ( 'NONE', *, *, #137, .F. ) ;
#126 = DATE_AND_TIME ( #133, #35 ) ;
#127 = CARTESIAN_POINT ( 'NONE',  ( 2.500000000000000000, 0.0000000000000000000, -2.000000000000000000 ) ) ;
#128 = DESIGN_CONTEXT ( 'detailed design', #51, 'design' ) ;
#129 = DATE_TIME_ROLE ( 'creation_date' ) ;
#130 = EDGE_LOOP ( 'NONE', ( #29, #74, #16, #83 ) ) ;
#131 = APPROVAL_PERSON_ORGANIZATION ( #78, #19, #96 ) ;
#132 = CC_DESIGN_APPROVAL ( #19, ( #160 ) ) ;
#133 = CALENDAR_DATE ( 2017, 31, 1 ) ;
#134 = ORIENTED_EDGE ( 'NONE', *, *, #45, .F. ) ;
#135 =( GEOMETRIC_REPRESENTATION_CONTEXT ( 3 ) GLOBAL_UNCERTAINTY_ASSIGNED_CONTEXT ( ( #124 ) ) GLOBAL_UNIT_ASSIGNED_CONTEXT ( ( #63, #77, #34 ) ) REPRESENTATION_CONTEXT ( 'NONE', 'WORKASPACE' ) );
#136 = DIRECTION ( 'NONE',  ( 0.0000000000000000000, 0.0000000000000000000, 1.000000000000000000 ) ) ;
#137 = EDGE_CURVE ( 'NONE', #44, #143, #32, .T. ) ;
#138 = DIRECTION ( 'NONE',  ( 0.0000000000000000000, 0.0000000000000000000, 1.000000000000000000 ) ) ;
#139 = VERTEX_POINT ( 'NONE', #114 ) ;
#140 = CARTESIAN_POINT ( 'NONE',  ( 0.0000000000000000000, 0.0000000000000000000, 0.0000000000000000000 ) ) ;
#141 = APPROVAL_STATUS ( 'not_yet_approved' ) ;
#142 = PERSON_AND_ORGANIZATION ( #5, #122 ) ;
#143 = VERTEX_POINT ( 'NONE', #105 ) ;
#144 = COORDINATED_UNIVERSAL_TIME_OFFSET ( 5, 0, .BEHIND. ) ;
#145 = AXIS2_PLACEMENT_3D ( 'NONE', #48, #15, #24 ) ;
#146 = CYLINDRICAL_SURFACE ( 'NONE', #86, 2.500000000000000000 ) ;
#147 = AXIS2_PLACEMENT_3D ( 'NONE', #154, #60, #151 ) ;
#148 = VERTEX_POINT ( 'NONE', #33 ) ;
#149 = PRODUCT_DEFINITION_SHAPE ( 'NONE', 'NONE',  #123 ) ;
#150 = CIRCLE ( 'NONE', #30, 2.500000000000000000 ) ;
#151 = DIRECTION ( 'NONE',  ( 1.000000000000000000, 0.0000000000000000000, -0.0000000000000000000 ) ) ;
#152 = CALENDAR_DATE ( 2017, 31, 1 ) ;
#153 = APPLICATION_CONTEXT ( 'configuration controlled 3d designs of mechanical parts and assemblies' ) ;
#154 = CARTESIAN_POINT ( 'NONE',  ( 0.0000000000000000000, 0.0000000000000000000, -2.000000000000000000 ) ) ;
#155 = CARTESIAN_POINT ( 'NONE',  ( -2.500000000000000000, 3.061616997868383100E-016, -2.000000000000000000 ) ) ;
#156 = DIRECTION ( 'NONE',  ( 0.0000000000000000000, 0.0000000000000000000, 1.000000000000000000 ) ) ;
#157 = EDGE_LOOP ( 'NONE', ( #118, #119 ) ) ;
#158 = EDGE_CURVE ( 'NONE', #139, #148, #20, .T. ) ;
#159 = PERSON_AND_ORGANIZATION_ROLE ( 'classification_officer' ) ;
#160 = PRODUCT_DEFINITION_FORMATION_WITH_SPECIFIED_SOURCE ( 'ANY', '', #164, .NOT_KNOWN. ) ;
#161 = APPROVAL_DATE_TIME ( #65, #19 ) ;
#162 = ADVANCED_FACE ( 'NONE', ( #79 ), #146, .T. ) ;
#163 = DATE_AND_TIME ( #88, #59 ) ;
#164 = PRODUCT ( 'Web Model 48448', 'Web Model 48448', '', ( #117 ) ) ;
#165 = CALENDAR_DATE ( 2017, 31, 1 ) ;
#166 = CC_DESIGN_APPROVAL ( #26, ( #123 ) ) ;
#167 = VECTOR ( 'NONE', #76, 1000.000000000000000 ) ;
#168 = DIRECTION ( 'NONE',  ( 1.000000000000000000, 0.0000000000000000000, 0.0000000000000000000 ) ) ;
#169 = DIRECTION ( 'NONE',  ( 0.0000000000000000000, 0.0000000000000000000, 1.000000000000000000 ) ) ;
#170 = DIRECTION ( 'NONE',  ( 1.000000000000000000, 0.0000000000000000000, 0.0000000000000000000 ) ) ;
#171 = CARTESIAN_POINT ( 'NONE',  ( 0.0000000000000000000, 0.0000000000000000000, -2.000000000000000000 ) ) ;
#172 = DATE_TIME_ROLE ( 'classification_date' ) ;
#173 = PERSON_AND_ORGANIZATION ( #5, #122 ) ;
#174 = CC_DESIGN_PERSON_AND_ORGANIZATION_ASSIGNMENT ( #91, #80, ( #164 ) ) ;
#175 = SECURITY_CLASSIFICATION_LEVEL ( 'unclassified' ) ;
ENDSEC;
END-ISO-10303-21;
