ISO-10303-21;
HEADER;
FILE_DESCRIPTION (( 'STEP AP203' ),
    '1' );
FILE_NAME ('Web Model 45075_13290.step',
    '2020-11-03T21:46:45',
    ( '' ),
    ( '' ),
    'SwSTEP 2.0',
    'SolidWorks 2018',
    '' );
FILE_SCHEMA (( 'CONFIG_CONTROL_DESIGN' ));
ENDSEC;

DATA;
#1 = CARTESIAN_POINT ( 'NONE',  ( 6.250000000000000000, 0.0000000000000000000, -3.000000000000000000 ) ) ;
#2 = MANIFOLD_SOLID_BREP ( 'Extrude1', #89 ) ;
#3 = CARTESIAN_POINT ( 'NONE',  ( 0.0000000000000000000, 0.0000000000000000000, -3.000000000000000000 ) ) ;
#4 = CIRCLE ( 'NONE', #103, 6.250000000000000000 ) ;
#5 = PLANE ( 'NONE',  #117 ) ;
#6 = SECURITY_CLASSIFICATION_LEVEL ( 'unclassified' ) ;
#7 = DATE_AND_TIME ( #172, #63 ) ;
#8 = DATE_AND_TIME ( #85, #17 ) ;
#9 = ORIENTED_EDGE ( 'NONE', *, *, #32, .F. ) ;
#10 = ORIENTED_EDGE ( 'NONE', *, *, #65, .T. ) ;
#11 = CARTESIAN_POINT ( 'NONE',  ( 0.0000000000000000000, 0.0000000000000000000, 0.0000000000000000000 ) ) ;
#12 = ORIENTED_EDGE ( 'NONE', *, *, #14, .T. ) ;
#13 = MECHANICAL_CONTEXT ( 'NONE', #43, 'mechanical' ) ;
#14 = EDGE_CURVE ( 'NONE', #143, #116, #76, .T. ) ;
#15 = APPLICATION_PROTOCOL_DEFINITION ( 'international standard', 'config_control_design', 1994, #43 ) ;
#16 = APPROVAL_STATUS ( 'not_yet_approved' ) ;
#17 = LOCAL_TIME ( 16, 46, 45.00000000000000000, #52 ) ;
#18 = CARTESIAN_POINT ( 'NONE',  ( 0.0000000000000000000, 0.0000000000000000000, 0.0000000000000000000 ) ) ;
#19 = ORIENTED_EDGE ( 'NONE', *, *, #54, .T. ) ;
#20 = APPROVAL ( #69, 'UNSPECIFIED' ) ;
#21 = ADVANCED_FACE ( 'NONE', ( #73 ), #160, .F. ) ;
#22 = AXIS2_PLACEMENT_3D ( 'NONE', #41, #145, #149 ) ;
#23 = FACE_OUTER_BOUND ( 'NONE', #165, .T. ) ;
#24 = CALENDAR_DATE ( 2020, 3, 11 ) ;
#25 = ORIENTED_EDGE ( 'NONE', *, *, #118, .T. ) ;
#26 = AXIS2_PLACEMENT_3D ( 'NONE', #29, #27, #132 ) ;
#27 = DIRECTION ( 'NONE',  ( 0.0000000000000000000, 0.0000000000000000000, 1.000000000000000000 ) ) ;
#28 = ORIENTED_EDGE ( 'NONE', *, *, #14, .F. ) ;
#29 = CARTESIAN_POINT ( 'NONE',  ( 0.0000000000000000000, 0.0000000000000000000, -3.000000000000000000 ) ) ;
#30 = CYLINDRICAL_SURFACE ( 'NONE', #136, 6.250000000000000000 ) ;
#31 = DIRECTION ( 'NONE',  ( 0.0000000000000000000, 0.0000000000000000000, 1.000000000000000000 ) ) ;
#32 = EDGE_CURVE ( 'NONE', #116, #60, #151, .T. ) ;
#33 = DIRECTION ( 'NONE',  ( 0.0000000000000000000, 0.0000000000000000000, 1.000000000000000000 ) ) ;
#34 = APPROVAL_ROLE ( '' ) ;
#35 = CALENDAR_DATE ( 2020, 3, 11 ) ;
#36 = LOCAL_TIME ( 16, 46, 45.00000000000000000, #130 ) ;
#37 = FACE_OUTER_BOUND ( 'NONE', #112, .T. ) ;
#38 = PRODUCT_DEFINITION_FORMATION_WITH_SPECIFIED_SOURCE ( 'ANY', '', #134, .NOT_KNOWN. ) ;
#39 = ORIENTED_EDGE ( 'NONE', *, *, #97, .T. ) ;
#40 = APPROVAL_PERSON_ORGANIZATION ( #175, #50, #34 ) ;
#41 = CARTESIAN_POINT ( 'NONE',  ( 0.0000000000000000000, 0.0000000000000000000, 0.0000000000000000000 ) ) ;
#42 = VECTOR ( 'NONE', #74, 1000.000000000000000 ) ;
#43 = APPLICATION_CONTEXT ( 'configuration controlled 3d designs of mechanical parts and assemblies' ) ;
#44 = PERSON_AND_ORGANIZATION_ROLE ( 'design_owner' ) ;
#45 = CC_DESIGN_PERSON_AND_ORGANIZATION_ASSIGNMENT ( #75, #108, ( #154 ) ) ;
#46 = DATE_TIME_ROLE ( 'classification_date' ) ;
#47 = EDGE_LOOP ( 'NONE', ( #57, #28 ) ) ;
#48 = ORIENTED_EDGE ( 'NONE', *, *, #118, .F. ) ;
#49 = UNCERTAINTY_MEASURE_WITH_UNIT (LENGTH_MEASURE( 1.000000000000000082E-05 ), #96, 'distance_accuracy_value', 'NONE');
#50 = APPROVAL ( #123, 'UNSPECIFIED' ) ;
#51 = SHAPE_DEFINITION_REPRESENTATION ( #77, #101 ) ;
#52 = COORDINATED_UNIVERSAL_TIME_OFFSET ( 5, 0, .BEHIND. ) ;
#53 = DIRECTION ( 'NONE',  ( 0.0000000000000000000, 0.0000000000000000000, 1.000000000000000000 ) ) ;
#54 = EDGE_CURVE ( 'NONE', #116, #143, #162, .T. ) ;
#55 = DIRECTION ( 'NONE',  ( 0.0000000000000000000, 0.0000000000000000000, 1.000000000000000000 ) ) ;
#56 = CARTESIAN_POINT ( 'NONE',  ( -6.250000000000000000, 7.654042494670957606E-16, -3.000000000000000000 ) ) ;
#57 = ORIENTED_EDGE ( 'NONE', *, *, #54, .F. ) ;
#58 = CC_DESIGN_APPROVAL ( #50, ( #38 ) ) ;
#59 = CIRCLE ( 'NONE', #22, 6.250000000000000000 ) ;
#60 = VERTEX_POINT ( 'NONE', #95 ) ;
#61 = VERTEX_POINT ( 'NONE', #78 ) ;
#62 = CC_DESIGN_SECURITY_CLASSIFICATION ( #154, ( #38 ) ) ;
#63 = LOCAL_TIME ( 16, 46, 45.00000000000000000, #99 ) ;
#64 = CARTESIAN_POINT ( 'NONE',  ( 0.0000000000000000000, 0.0000000000000000000, -3.000000000000000000 ) ) ;
#65 = EDGE_CURVE ( 'NONE', #143, #61, #156, .T. ) ;
#66 = DIRECTION ( 'NONE',  ( 1.000000000000000000, 0.0000000000000000000, 0.0000000000000000000 ) ) ;
#67 = LOCAL_TIME ( 16, 46, 45.00000000000000000, #140 ) ;
#68 = DIRECTION ( 'NONE',  ( 0.0000000000000000000, 0.0000000000000000000, 1.000000000000000000 ) ) ;
#69 = APPROVAL_STATUS ( 'not_yet_approved' ) ;
#70 = DIRECTION ( 'NONE',  ( 1.000000000000000000, 0.0000000000000000000, 0.0000000000000000000 ) ) ;
#71 = FACE_OUTER_BOUND ( 'NONE', #92, .T. ) ;
#72 = PRODUCT_RELATED_PRODUCT_CATEGORY ( 'detail', '', ( #134 ) ) ;
#73 = FACE_OUTER_BOUND ( 'NONE', #47, .T. ) ;
#74 = DIRECTION ( 'NONE',  ( 0.0000000000000000000, 0.0000000000000000000, 1.000000000000000000 ) ) ;
#75 = PERSON_AND_ORGANIZATION ( #120, #152 ) ;
#76 = CIRCLE ( 'NONE', #147, 6.250000000000000000 ) ;
#77 = PRODUCT_DEFINITION_SHAPE ( 'NONE', 'NONE',  #173 ) ;
#78 = CARTESIAN_POINT ( 'NONE',  ( -6.250000000000000000, 7.654042494670957606E-16, 0.0000000000000000000 ) ) ;
#79 = DIRECTION ( 'NONE',  ( 1.000000000000000000, 0.0000000000000000000, 0.0000000000000000000 ) ) ;
#80 = APPROVAL_DATE_TIME ( #119, #164 ) ;
#81 =( NAMED_UNIT ( * ) SI_UNIT ( $, .STERADIAN. ) SOLID_ANGLE_UNIT ( ) );
#82 = APPLICATION_PROTOCOL_DEFINITION ( 'international standard', 'config_control_design', 1994, #168 ) ;
#83 = PERSON_AND_ORGANIZATION ( #120, #152 ) ;
#84 = PERSON_AND_ORGANIZATION_ROLE ( 'creator' ) ;
#85 = CALENDAR_DATE ( 2020, 3, 11 ) ;
#86 = ORIENTED_EDGE ( 'NONE', *, *, #65, .F. ) ;
#87 = AXIS2_PLACEMENT_3D ( 'NONE', #166, #163, #93 ) ;
#88 = VECTOR ( 'NONE', #55, 1000.000000000000000 ) ;
#89 = CLOSED_SHELL ( 'NONE', ( #141, #153, #21, #139 ) ) ;
#90 = CC_DESIGN_APPROVAL ( #164, ( #154 ) ) ;
#91 = CALENDAR_DATE ( 2020, 3, 11 ) ;
#92 = EDGE_LOOP ( 'NONE', ( #86, #12, #115, #48 ) ) ;
#93 = DIRECTION ( 'NONE',  ( 1.000000000000000000, 0.0000000000000000000, 0.0000000000000000000 ) ) ;
#94 = CARTESIAN_POINT ( 'NONE',  ( 0.0000000000000000000, 0.0000000000000000000, 0.0000000000000000000 ) ) ;
#95 = CARTESIAN_POINT ( 'NONE',  ( 6.250000000000000000, 0.0000000000000000000, 0.0000000000000000000 ) ) ;
#96 =( LENGTH_UNIT ( ) NAMED_UNIT ( * ) SI_UNIT ( .MILLI., .METRE. ) );
#97 = EDGE_CURVE ( 'NONE', #60, #61, #59, .T. ) ;
#98 = APPROVAL_DATE_TIME ( #174, #20 ) ;
#99 = COORDINATED_UNIVERSAL_TIME_OFFSET ( 5, 0, .BEHIND. ) ;
#100 = CC_DESIGN_DATE_AND_TIME_ASSIGNMENT ( #7, #46, ( #154 ) ) ;
#101 = ADVANCED_BREP_SHAPE_REPRESENTATION ( 'Web Model 45075_13290', ( #2, #102 ), #167 ) ;
#102 = AXIS2_PLACEMENT_3D ( 'NONE', #18, #33, #170 ) ;
#103 = AXIS2_PLACEMENT_3D ( 'NONE', #94, #104, #66 ) ;
#104 = DIRECTION ( 'NONE',  ( 0.0000000000000000000, 0.0000000000000000000, 1.000000000000000000 ) ) ;
#105 = COORDINATED_UNIVERSAL_TIME_OFFSET ( 5, 0, .BEHIND. ) ;
#106 = DIRECTION ( 'NONE',  ( 1.000000000000000000, 0.0000000000000000000, -0.0000000000000000000 ) ) ;
#107 = DIRECTION ( 'NONE',  ( 1.000000000000000000, 0.0000000000000000000, 0.0000000000000000000 ) ) ;
#108 = PERSON_AND_ORGANIZATION_ROLE ( 'classification_officer' ) ;
#109 = DATE_AND_TIME ( #24, #36 ) ;
#110 = APPROVAL_ROLE ( '' ) ;
#111 =( NAMED_UNIT ( * ) PLANE_ANGLE_UNIT ( ) SI_UNIT ( $, .RADIAN. ) );
#112 = EDGE_LOOP ( 'NONE', ( #39, #25 ) ) ;
#113 = PERSON_AND_ORGANIZATION_ROLE ( 'creator' ) ;
#114 = PERSON_AND_ORGANIZATION ( #120, #152 ) ;
#115 = ORIENTED_EDGE ( 'NONE', *, *, #32, .T. ) ;
#116 = VERTEX_POINT ( 'NONE', #1 ) ;
#117 = AXIS2_PLACEMENT_3D ( 'NONE', #11, #53, #106 ) ;
#118 = EDGE_CURVE ( 'NONE', #61, #60, #4, .T. ) ;
#119 = DATE_AND_TIME ( #91, #155 ) ;
#120 = PERSON ( 'UNSPECIFIED', 'UNSPECIFIED', 'UNSPECIFIED', ('UNSPECIFIED'), ('UNSPECIFIED'), ('UNSPECIFIED') ) ;
#121 = CC_DESIGN_APPROVAL ( #20, ( #173 ) ) ;
#122 = CARTESIAN_POINT ( 'NONE',  ( -6.250000000000000000, 7.654042494670957606E-16, -3.000000000000000000 ) ) ;
#123 = APPROVAL_STATUS ( 'not_yet_approved' ) ;
#124 = APPROVAL_DATE_TIME ( #8, #50 ) ;
#125 = CYLINDRICAL_SURFACE ( 'NONE', #131, 6.250000000000000000 ) ;
#126 = PERSON_AND_ORGANIZATION_ROLE ( 'design_supplier' ) ;
#127 = ORIENTED_EDGE ( 'NONE', *, *, #97, .F. ) ;
#128 = CC_DESIGN_PERSON_AND_ORGANIZATION_ASSIGNMENT ( #148, #44, ( #134 ) ) ;
#129 = CC_DESIGN_PERSON_AND_ORGANIZATION_ASSIGNMENT ( #159, #84, ( #38 ) ) ;
#130 = COORDINATED_UNIVERSAL_TIME_OFFSET ( 5, 0, .BEHIND. ) ;
#131 = AXIS2_PLACEMENT_3D ( 'NONE', #64, #68, #70 ) ;
#132 = DIRECTION ( 'NONE',  ( 1.000000000000000000, 0.0000000000000000000, -0.0000000000000000000 ) ) ;
#133 = CC_DESIGN_PERSON_AND_ORGANIZATION_ASSIGNMENT ( #83, #126, ( #38 ) ) ;
#134 = PRODUCT ( 'Web Model 45075_13290', 'Web Model 45075_13290', '', ( #13 ) ) ;
#135 = CARTESIAN_POINT ( 'NONE',  ( 0.0000000000000000000, 0.0000000000000000000, -3.000000000000000000 ) ) ;
#136 = AXIS2_PLACEMENT_3D ( 'NONE', #3, #150, #107 ) ;
#137 = DATE_TIME_ROLE ( 'creation_date' ) ;
#138 = APPROVAL_ROLE ( '' ) ;
#139 = ADVANCED_FACE ( 'NONE', ( #37 ), #5, .T. ) ;
#140 = COORDINATED_UNIVERSAL_TIME_OFFSET ( 5, 0, .BEHIND. ) ;
#141 = ADVANCED_FACE ( 'NONE', ( #23 ), #30, .T. ) ;
#142 = CC_DESIGN_PERSON_AND_ORGANIZATION_ASSIGNMENT ( #161, #113, ( #173 ) ) ;
#143 = VERTEX_POINT ( 'NONE', #56 ) ;
#144 = APPROVAL_PERSON_ORGANIZATION ( #169, #164, #138 ) ;
#145 = DIRECTION ( 'NONE',  ( 0.0000000000000000000, 0.0000000000000000000, 1.000000000000000000 ) ) ;
#146 = CARTESIAN_POINT ( 'NONE',  ( 6.250000000000000000, 0.0000000000000000000, -3.000000000000000000 ) ) ;
#147 = AXIS2_PLACEMENT_3D ( 'NONE', #135, #31, #79 ) ;
#148 = PERSON_AND_ORGANIZATION ( #120, #152 ) ;
#149 = DIRECTION ( 'NONE',  ( 1.000000000000000000, 0.0000000000000000000, 0.0000000000000000000 ) ) ;
#150 = DIRECTION ( 'NONE',  ( 0.0000000000000000000, 0.0000000000000000000, 1.000000000000000000 ) ) ;
#151 = LINE ( 'NONE', #146, #88 ) ;
#152 = ORGANIZATION ( 'UNSPECIFIED', 'UNSPECIFIED', '' ) ;
#153 = ADVANCED_FACE ( 'NONE', ( #71 ), #125, .T. ) ;
#154 = SECURITY_CLASSIFICATION ( '', '', #6 ) ;
#155 = LOCAL_TIME ( 16, 46, 45.00000000000000000, #105 ) ;
#156 = LINE ( 'NONE', #122, #42 ) ;
#157 = CC_DESIGN_DATE_AND_TIME_ASSIGNMENT ( #109, #137, ( #173 ) ) ;
#158 = DESIGN_CONTEXT ( 'detailed design', #168, 'design' ) ;
#159 = PERSON_AND_ORGANIZATION ( #120, #152 ) ;
#160 = PLANE ( 'NONE',  #26 ) ;
#161 = PERSON_AND_ORGANIZATION ( #120, #152 ) ;
#162 = CIRCLE ( 'NONE', #87, 6.250000000000000000 ) ;
#163 = DIRECTION ( 'NONE',  ( 0.0000000000000000000, 0.0000000000000000000, 1.000000000000000000 ) ) ;
#164 = APPROVAL ( #16, 'UNSPECIFIED' ) ;
#165 = EDGE_LOOP ( 'NONE', ( #19, #10, #127, #9 ) ) ;
#166 = CARTESIAN_POINT ( 'NONE',  ( 0.0000000000000000000, 0.0000000000000000000, -3.000000000000000000 ) ) ;
#167 =( GEOMETRIC_REPRESENTATION_CONTEXT ( 3 ) GLOBAL_UNCERTAINTY_ASSIGNED_CONTEXT ( ( #49 ) ) GLOBAL_UNIT_ASSIGNED_CONTEXT ( ( #96, #111, #81 ) ) REPRESENTATION_CONTEXT ( 'NONE', 'WORKASPACE' ) );
#168 = APPLICATION_CONTEXT ( 'configuration controlled 3d designs of mechanical parts and assemblies' ) ;
#169 = PERSON_AND_ORGANIZATION ( #120, #152 ) ;
#170 = DIRECTION ( 'NONE',  ( 1.000000000000000000, 0.0000000000000000000, 0.0000000000000000000 ) ) ;
#171 = APPROVAL_PERSON_ORGANIZATION ( #114, #20, #110 ) ;
#172 = CALENDAR_DATE ( 2020, 3, 11 ) ;
#173 = PRODUCT_DEFINITION ( 'UNKNOWN', '', #38, #158 ) ;
#174 = DATE_AND_TIME ( #35, #67 ) ;
#175 = PERSON_AND_ORGANIZATION ( #120, #152 ) ;
ENDSEC;
END-ISO-10303-21;
