ISO-10303-21;
HEADER;
FILE_DESCRIPTION (( 'STEP AP203' ),
    '1' );
FILE_NAME ('Web Model 43818_46612.step',
    '2017-04-10T18:04:20',
    ( '' ),
    ( '' ),
    'SwSTEP 2.0',
    'SolidWorks 2016',
    '' );
FILE_SCHEMA (( 'CONFIG_CONTROL_DESIGN' ));
ENDSEC;

DATA;
#1 =( NAMED_UNIT ( * ) PLANE_ANGLE_UNIT ( ) SI_UNIT ( $, .RADIAN. ) );
#2 = AXIS2_PLACEMENT_3D ( 'NONE', #50, #59, #65 ) ;
#3 = DIRECTION ( 'NONE',  ( -0.0000000000000000000, 0.0000000000000000000, -1.000000000000000000 ) ) ;
#4 = CARTESIAN_POINT ( 'NONE',  ( -25.00000000000000000, -25.00000000000000000, 0.5000000000000000000 ) ) ;
#5 = FACE_OUTER_BOUND ( 'NONE', #171, .T. ) ;
#6 = PLANE ( 'NONE',  #60 ) ;
#7 = CARTESIAN_POINT ( 'NONE',  ( 25.00000000000000000, 25.00000000000000000, 0.5000000000000000000 ) ) ;
#8 = VERTEX_POINT ( 'NONE', #188 ) ;
#9 = UNCERTAINTY_MEASURE_WITH_UNIT (LENGTH_MEASURE( 1.000000000000000100E-005 ), #118, 'distance_accuracy_value', 'NONE');
#10 = APPLICATION_PROTOCOL_DEFINITION ( 'international standard', 'config_control_design', 1994, #133 ) ;
#11 = DIRECTION ( 'NONE',  ( -0.0000000000000000000, -0.0000000000000000000, -1.000000000000000000 ) ) ;
#12 = ORIENTED_EDGE ( 'NONE', *, *, #117, .F. ) ;
#13 = PRODUCT ( 'Web Model 43818_46612', 'Web Model 43818_46612', '', ( #14 ) ) ;
#14 = MECHANICAL_CONTEXT ( 'NONE', #154, 'mechanical' ) ;
#15 = DIRECTION ( 'NONE',  ( -0.0000000000000000000, -0.0000000000000000000, -1.000000000000000000 ) ) ;
#16 = DIRECTION ( 'NONE',  ( -0.0000000000000000000, -0.0000000000000000000, -1.000000000000000000 ) ) ;
#17 = PLANE ( 'NONE',  #197 ) ;
#18 = CARTESIAN_POINT ( 'NONE',  ( -25.00000000000000000, 25.00000000000000000, 0.5000000000000000000 ) ) ;
#19 = CC_DESIGN_PERSON_AND_ORGANIZATION_ASSIGNMENT ( #202, #104, ( #157 ) ) ;
#20 = DIRECTION ( 'NONE',  ( 0.0000000000000000000, -0.0000000000000000000, 1.000000000000000000 ) ) ;
#21 = DIRECTION ( 'NONE',  ( 0.0000000000000000000, 1.000000000000000000, 0.0000000000000000000 ) ) ;
#22 = DIRECTION ( 'NONE',  ( -0.0000000000000000000, 1.000000000000000000, -0.0000000000000000000 ) ) ;
#23 = ORIENTED_EDGE ( 'NONE', *, *, #220, .T. ) ;
#24 = CARTESIAN_POINT ( 'NONE',  ( 25.00000000000000000, -25.00000000000000000, 0.5000000000000000000 ) ) ;
#25 = EDGE_CURVE ( 'NONE', #213, #94, #88, .T. ) ;
#26 = DIRECTION ( 'NONE',  ( 1.000000000000000000, 0.0000000000000000000, 0.0000000000000000000 ) ) ;
#27 = PERSON_AND_ORGANIZATION ( #204, #84 ) ;
#28 = VERTEX_POINT ( 'NONE', #7 ) ;
#29 = CALENDAR_DATE ( 2017, 10, 4 ) ;
#30 = APPROVAL_STATUS ( 'not_yet_approved' ) ;
#31 = PERSON_AND_ORGANIZATION_ROLE ( 'design_supplier' ) ;
#32 = SECURITY_CLASSIFICATION ( '', '', #163 ) ;
#33 = ORIENTED_EDGE ( 'NONE', *, *, #82, .T. ) ;
#34 = PERSON_AND_ORGANIZATION_ROLE ( 'creator' ) ;
#35 = DIRECTION ( 'NONE',  ( 0.0000000000000000000, -1.000000000000000000, 0.0000000000000000000 ) ) ;
#36 = PERSON_AND_ORGANIZATION ( #204, #84 ) ;
#37 = LINE ( 'NONE', #172, #173 ) ;
#38 = PERSON_AND_ORGANIZATION_ROLE ( 'classification_officer' ) ;
#39 = EDGE_CURVE ( 'NONE', #187, #150, #182, .T. ) ;
#40 = DATE_TIME_ROLE ( 'creation_date' ) ;
#41 = CARTESIAN_POINT ( 'NONE',  ( -25.00000000000000000, 25.00000000000000000, 0.5000000000000000000 ) ) ;
#42 = CARTESIAN_POINT ( 'NONE',  ( 25.00000000000000000, -25.00000000000000000, 0.5000000000000000000 ) ) ;
#43 = LOCAL_TIME ( 14, 4, 20.00000000000000000, #79 ) ;
#44 = ORIENTED_EDGE ( 'NONE', *, *, #122, .F. ) ;
#45 = ORIENTED_EDGE ( 'NONE', *, *, #82, .F. ) ;
#46 = CARTESIAN_POINT ( 'NONE',  ( 25.00000000000000000, 25.00000000000000000, -0.5000000000000000000 ) ) ;
#47 = VECTOR ( 'NONE', #193, 1000.000000000000000 ) ;
#48 = CARTESIAN_POINT ( 'NONE',  ( 25.00000000000000000, 25.00000000000000000, 0.5000000000000000000 ) ) ;
#49 = EDGE_CURVE ( 'NONE', #150, #214, #208, .T. ) ;
#50 = CARTESIAN_POINT ( 'NONE',  ( 0.0000000000000000000, 0.0000000000000000000, 0.0000000000000000000 ) ) ;
#51 = APPROVAL_PERSON_ORGANIZATION ( #186, #77, #107 ) ;
#52 = PLANE ( 'NONE',  #72 ) ;
#53 = DIRECTION ( 'NONE',  ( -0.0000000000000000000, 0.0000000000000000000, 1.000000000000000000 ) ) ;
#54 = CARTESIAN_POINT ( 'NONE',  ( -25.00000000000000000, 25.00000000000000000, 0.5000000000000000000 ) ) ;
#55 = DIRECTION ( 'NONE',  ( 1.000000000000000000, 0.0000000000000000000, 0.0000000000000000000 ) ) ;
#56 = EDGE_LOOP ( 'NONE', ( #143, #44, #200, #103 ) ) ;
#57 = ORIENTED_EDGE ( 'NONE', *, *, #119, .T. ) ;
#58 = CC_DESIGN_APPROVAL ( #180, ( #32 ) ) ;
#59 = DIRECTION ( 'NONE',  ( 0.0000000000000000000, 0.0000000000000000000, 1.000000000000000000 ) ) ;
#60 = AXIS2_PLACEMENT_3D ( 'NONE', #92, #81, #26 ) ;
#61 = CARTESIAN_POINT ( 'NONE',  ( -25.00000000000000000, 25.00000000000000000, 0.5000000000000000000 ) ) ;
#62 = CARTESIAN_POINT ( 'NONE',  ( -25.00000000000000000, -25.00000000000000000, 0.5000000000000000000 ) ) ;
#63 = CLOSED_SHELL ( 'NONE', ( #195, #198, #201, #230, #205, #162 ) ) ;
#64 = ORIENTED_EDGE ( 'NONE', *, *, #122, .T. ) ;
#65 = DIRECTION ( 'NONE',  ( 1.000000000000000000, 0.0000000000000000000, 0.0000000000000000000 ) ) ;
#66 = AXIS2_PLACEMENT_3D ( 'NONE', #215, #21, #20 ) ;
#67 = CARTESIAN_POINT ( 'NONE',  ( 25.00000000000000000, 25.00000000000000000, -0.5000000000000000000 ) ) ;
#68 = ORIENTED_EDGE ( 'NONE', *, *, #119, .F. ) ;
#69 = APPROVAL_ROLE ( '' ) ;
#70 = CARTESIAN_POINT ( 'NONE',  ( -25.00000000000000000, 25.00000000000000000, 0.5000000000000000000 ) ) ;
#71 = DIRECTION ( 'NONE',  ( -0.0000000000000000000, 1.000000000000000000, -0.0000000000000000000 ) ) ;
#72 = AXIS2_PLACEMENT_3D ( 'NONE', #137, #116, #3 ) ;
#73 = LINE ( 'NONE', #221, #218 ) ;
#74 = DIRECTION ( 'NONE',  ( 0.0000000000000000000, -1.000000000000000000, 0.0000000000000000000 ) ) ;
#75 = PERSON_AND_ORGANIZATION_ROLE ( 'design_owner' ) ;
#76 = DIRECTION ( 'NONE',  ( 0.0000000000000000000, -1.000000000000000000, 0.0000000000000000000 ) ) ;
#77 = APPROVAL ( #30, 'UNSPECIFIED' ) ;
#78 = LOCAL_TIME ( 14, 4, 20.00000000000000000, #142 ) ;
#79 = COORDINATED_UNIVERSAL_TIME_OFFSET ( 5, 0, .BEHIND. ) ;
#80 = CARTESIAN_POINT ( 'NONE',  ( -25.00000000000000000, -25.00000000000000000, -0.5000000000000000000 ) ) ;
#81 = DIRECTION ( 'NONE',  ( -0.0000000000000000000, 0.0000000000000000000, 1.000000000000000000 ) ) ;
#82 = EDGE_CURVE ( 'NONE', #213, #187, #130, .T. ) ;
#83 = VERTEX_POINT ( 'NONE', #54 ) ;
#84 = ORGANIZATION ( 'UNSPECIFIED', 'UNSPECIFIED', '' ) ;
#85 = ORIENTED_EDGE ( 'NONE', *, *, #106, .F. ) ;
#86 = LINE ( 'NONE', #48, #219 ) ;
#87 = VECTOR ( 'NONE', #190, 1000.000000000000000 ) ;
#88 = LINE ( 'NONE', #4, #166 ) ;
#89 = CALENDAR_DATE ( 2017, 10, 4 ) ;
#90 = EDGE_LOOP ( 'NONE', ( #174, #237, #45, #91 ) ) ;
#91 = ORIENTED_EDGE ( 'NONE', *, *, #25, .T. ) ;
#92 = CARTESIAN_POINT ( 'NONE',  ( 0.0000000000000000000, 0.0000000000000000000, -0.5000000000000000000 ) ) ;
#93 = APPROVAL_DATE_TIME ( #235, #124 ) ;
#94 = VERTEX_POINT ( 'NONE', #139 ) ;
#95 = CARTESIAN_POINT ( 'NONE',  ( 25.00000000000000000, 25.00000000000000000, 0.5000000000000000000 ) ) ;
#96 = CARTESIAN_POINT ( 'NONE',  ( -25.00000000000000000, -25.00000000000000000, 0.5000000000000000000 ) ) ;
#97 = EDGE_CURVE ( 'NONE', #214, #8, #73, .T. ) ;
#98 = PERSON_AND_ORGANIZATION ( #204, #84 ) ;
#99 = CARTESIAN_POINT ( 'NONE',  ( 25.00000000000000000, 25.00000000000000000, 0.5000000000000000000 ) ) ;
#100 = PRODUCT_DEFINITION_SHAPE ( 'NONE', 'NONE',  #141 ) ;
#101 = EDGE_LOOP ( 'NONE', ( #123, #85, #12, #64 ) ) ;
#102 = EDGE_CURVE ( 'NONE', #187, #28, #86, .T. ) ;
#103 = ORIENTED_EDGE ( 'NONE', *, *, #39, .T. ) ;
#104 = PERSON_AND_ORGANIZATION_ROLE ( 'creator' ) ;
#105 = LINE ( 'NONE', #80, #87 ) ;
#106 = EDGE_CURVE ( 'NONE', #83, #8, #199, .T. ) ;
#107 = APPROVAL_ROLE ( '' ) ;
#108 = ORIENTED_EDGE ( 'NONE', *, *, #97, .F. ) ;
#109 = FACE_OUTER_BOUND ( 'NONE', #101, .T. ) ;
#110 = CC_DESIGN_APPROVAL ( #124, ( #157 ) ) ;
#111 = PERSON_AND_ORGANIZATION ( #204, #84 ) ;
#112 = VECTOR ( 'NONE', #74, 1000.000000000000000 ) ;
#113 = APPROVAL_PERSON_ORGANIZATION ( #27, #124, #69 ) ;
#114 = SHAPE_DEFINITION_REPRESENTATION ( #100, #206 ) ;
#115 = APPROVAL_STATUS ( 'not_yet_approved' ) ;
#116 = DIRECTION ( 'NONE',  ( 1.000000000000000000, 0.0000000000000000000, -0.0000000000000000000 ) ) ;
#117 = EDGE_CURVE ( 'NONE', #28, #83, #179, .T. ) ;
#118 =( LENGTH_UNIT ( ) NAMED_UNIT ( * ) SI_UNIT ( .MILLI., .METRE. ) );
#119 = EDGE_CURVE ( 'NONE', #8, #94, #37, .T. ) ;
#120 = ORIENTED_EDGE ( 'NONE', *, *, #25, .F. ) ;
#121 = DATE_TIME_ROLE ( 'classification_date' ) ;
#122 = EDGE_CURVE ( 'NONE', #28, #214, #159, .T. ) ;
#123 = ORIENTED_EDGE ( 'NONE', *, *, #97, .T. ) ;
#124 = APPROVAL ( #115, 'UNSPECIFIED' ) ;
#125 = CARTESIAN_POINT ( 'NONE',  ( 0.0000000000000000000, 0.0000000000000000000, 0.5000000000000000000 ) ) ;
#126 = LOCAL_TIME ( 14, 4, 20.00000000000000000, #178 ) ;
#127 = PRODUCT_RELATED_PRODUCT_CATEGORY ( 'detail', '', ( #13 ) ) ;
#128 = AXIS2_PLACEMENT_3D ( 'NONE', #99, #161, #132 ) ;
#129 = APPROVAL_DATE_TIME ( #207, #180 ) ;
#130 = LINE ( 'NONE', #96, #165 ) ;
#131 = PLANE ( 'NONE',  #66 ) ;
#132 = DIRECTION ( 'NONE',  ( 0.0000000000000000000, 0.0000000000000000000, 1.000000000000000000 ) ) ;
#133 = APPLICATION_CONTEXT ( 'configuration controlled 3d designs of mechanical parts and assemblies' ) ;
#134 = AXIS2_PLACEMENT_3D ( 'NONE', #18, #35, #184 ) ;
#135 = DIRECTION ( 'NONE',  ( -1.000000000000000000, -0.0000000000000000000, -0.0000000000000000000 ) ) ;
#136 = APPROVAL_PERSON_ORGANIZATION ( #98, #180, #175 ) ;
#137 = CARTESIAN_POINT ( 'NONE',  ( -25.00000000000000000, 25.00000000000000000, 0.5000000000000000000 ) ) ;
#138 = FACE_OUTER_BOUND ( 'NONE', #90, .T. ) ;
#139 = CARTESIAN_POINT ( 'NONE',  ( -25.00000000000000000, -25.00000000000000000, -0.5000000000000000000 ) ) ;
#140 = COORDINATED_UNIVERSAL_TIME_OFFSET ( 5, 0, .BEHIND. ) ;
#141 = PRODUCT_DEFINITION ( 'UNKNOWN', '', #157, #223 ) ;
#142 = COORDINATED_UNIVERSAL_TIME_OFFSET ( 5, 0, .BEHIND. ) ;
#143 = ORIENTED_EDGE ( 'NONE', *, *, #49, .T. ) ;
#144 = CC_DESIGN_APPROVAL ( #77, ( #141 ) ) ;
#145 = ORIENTED_EDGE ( 'NONE', *, *, #232, .F. ) ;
#146 = PERSON_AND_ORGANIZATION ( #204, #84 ) ;
#147 = EDGE_LOOP ( 'NONE', ( #168, #236, #23, #33 ) ) ;
#148 = CC_DESIGN_PERSON_AND_ORGANIZATION_ASSIGNMENT ( #111, #31, ( #157 ) ) ;
#149 = DATE_AND_TIME ( #169, #78 ) ;
#150 = VERTEX_POINT ( 'NONE', #189 ) ;
#151 = MANIFOLD_SOLID_BREP ( 'Boss-Extrude1', #63 ) ;
#152 = ORIENTED_EDGE ( 'NONE', *, *, #49, .F. ) ;
#153 = CC_DESIGN_DATE_AND_TIME_ASSIGNMENT ( #233, #40, ( #141 ) ) ;
#154 = APPLICATION_CONTEXT ( 'configuration controlled 3d designs of mechanical parts and assemblies' ) ;
#155 = CALENDAR_DATE ( 2017, 10, 4 ) ;
#156 = CALENDAR_DATE ( 2017, 10, 4 ) ;
#157 = PRODUCT_DEFINITION_FORMATION_WITH_SPECIFIED_SOURCE ( 'ANY', '', #13, .NOT_KNOWN. ) ;
#158 = DATE_AND_TIME ( #29, #43 ) ;
#159 = LINE ( 'NONE', #95, #210 ) ;
#160 = CC_DESIGN_SECURITY_CLASSIFICATION ( #32, ( #157 ) ) ;
#161 = DIRECTION ( 'NONE',  ( -1.000000000000000000, 0.0000000000000000000, 0.0000000000000000000 ) ) ;
#162 = ADVANCED_FACE ( 'NONE', ( #5 ), #6, .F. ) ;
#163 = SECURITY_CLASSIFICATION_LEVEL ( 'unclassified' ) ;
#164 = APPLICATION_PROTOCOL_DEFINITION ( 'international standard', 'config_control_design', 1994, #154 ) ;
#165 = VECTOR ( 'NONE', #192, 1000.000000000000000 ) ;
#166 = VECTOR ( 'NONE', #15, 1000.000000000000000 ) ;
#167 = CC_DESIGN_PERSON_AND_ORGANIZATION_ASSIGNMENT ( #146, #75, ( #13 ) ) ;
#168 = ORIENTED_EDGE ( 'NONE', *, *, #102, .T. ) ;
#169 = CALENDAR_DATE ( 2017, 10, 4 ) ;
#170 = APPROVAL_STATUS ( 'not_yet_approved' ) ;
#171 = EDGE_LOOP ( 'NONE', ( #152, #145, #68, #108 ) ) ;
#172 = CARTESIAN_POINT ( 'NONE',  ( -25.00000000000000000, 25.00000000000000000, -0.5000000000000000000 ) ) ;
#173 = VECTOR ( 'NONE', #76, 1000.000000000000000 ) ;
#174 = ORIENTED_EDGE ( 'NONE', *, *, #232, .T. ) ;
#175 = APPROVAL_ROLE ( '' ) ;
#176 = APPROVAL_DATE_TIME ( #149, #77 ) ;
#177 =( NAMED_UNIT ( * ) SI_UNIT ( $, .STERADIAN. ) SOLID_ANGLE_UNIT ( ) );
#178 = COORDINATED_UNIVERSAL_TIME_OFFSET ( 5, 0, .BEHIND. ) ;
#179 = LINE ( 'NONE', #70, #185 ) ;
#180 = APPROVAL ( #170, 'UNSPECIFIED' ) ;
#181 = FACE_OUTER_BOUND ( 'NONE', #147, .T. ) ;
#182 = LINE ( 'NONE', #24, #227 ) ;
#183 = EDGE_LOOP ( 'NONE', ( #57, #120, #203, #191 ) ) ;
#184 = DIRECTION ( 'NONE',  ( 0.0000000000000000000, -0.0000000000000000000, -1.000000000000000000 ) ) ;
#185 = VECTOR ( 'NONE', #196, 1000.000000000000000 ) ;
#186 = PERSON_AND_ORGANIZATION ( #204, #84 ) ;
#187 = VERTEX_POINT ( 'NONE', #42 ) ;
#188 = CARTESIAN_POINT ( 'NONE',  ( -25.00000000000000000, 25.00000000000000000, -0.5000000000000000000 ) ) ;
#189 = CARTESIAN_POINT ( 'NONE',  ( 25.00000000000000000, -25.00000000000000000, -0.5000000000000000000 ) ) ;
#190 = DIRECTION ( 'NONE',  ( 1.000000000000000000, 0.0000000000000000000, 0.0000000000000000000 ) ) ;
#191 = ORIENTED_EDGE ( 'NONE', *, *, #106, .T. ) ;
#192 = DIRECTION ( 'NONE',  ( 1.000000000000000000, 0.0000000000000000000, 0.0000000000000000000 ) ) ;
#193 = DIRECTION ( 'NONE',  ( -0.0000000000000000000, -0.0000000000000000000, -1.000000000000000000 ) ) ;
#194 = CC_DESIGN_DATE_AND_TIME_ASSIGNMENT ( #158, #121, ( #32 ) ) ;
#195 = ADVANCED_FACE ( 'NONE', ( #226 ), #229, .F. ) ;
#196 = DIRECTION ( 'NONE',  ( -1.000000000000000000, -0.0000000000000000000, -0.0000000000000000000 ) ) ;
#197 = AXIS2_PLACEMENT_3D ( 'NONE', #125, #53, #55 ) ;
#198 = ADVANCED_FACE ( 'NONE', ( #109 ), #228, .F. ) ;
#199 = LINE ( 'NONE', #41, #47 ) ;
#200 = ORIENTED_EDGE ( 'NONE', *, *, #102, .F. ) ;
#201 = ADVANCED_FACE ( 'NONE', ( #217 ), #52, .F. ) ;
#202 = PERSON_AND_ORGANIZATION ( #204, #84 ) ;
#203 = ORIENTED_EDGE ( 'NONE', *, *, #220, .F. ) ;
#204 = PERSON ( 'UNSPECIFIED', 'UNSPECIFIED', 'UNSPECIFIED', ('UNSPECIFIED'), ('UNSPECIFIED'), ('UNSPECIFIED') ) ;
#205 = ADVANCED_FACE ( 'NONE', ( #181 ), #17, .T. ) ;
#206 = ADVANCED_BREP_SHAPE_REPRESENTATION ( 'Web Model 43818_46612', ( #151, #2 ), #222 ) ;
#207 = DATE_AND_TIME ( #156, #211 ) ;
#208 = LINE ( 'NONE', #67, #212 ) ;
#209 = LINE ( 'NONE', #61, #112 ) ;
#210 = VECTOR ( 'NONE', #11, 1000.000000000000000 ) ;
#211 = LOCAL_TIME ( 14, 4, 20.00000000000000000, #216 ) ;
#212 = VECTOR ( 'NONE', #71, 1000.000000000000000 ) ;
#213 = VERTEX_POINT ( 'NONE', #62 ) ;
#214 = VERTEX_POINT ( 'NONE', #46 ) ;
#215 = CARTESIAN_POINT ( 'NONE',  ( -25.00000000000000000, -25.00000000000000000, 0.5000000000000000000 ) ) ;
#216 = COORDINATED_UNIVERSAL_TIME_OFFSET ( 5, 0, .BEHIND. ) ;
#217 = FACE_OUTER_BOUND ( 'NONE', #183, .T. ) ;
#218 = VECTOR ( 'NONE', #135, 1000.000000000000000 ) ;
#219 = VECTOR ( 'NONE', #22, 1000.000000000000000 ) ;
#220 = EDGE_CURVE ( 'NONE', #83, #213, #209, .T. ) ;
#221 = CARTESIAN_POINT ( 'NONE',  ( -25.00000000000000000, 25.00000000000000000, -0.5000000000000000000 ) ) ;
#222 =( GEOMETRIC_REPRESENTATION_CONTEXT ( 3 ) GLOBAL_UNCERTAINTY_ASSIGNED_CONTEXT ( ( #9 ) ) GLOBAL_UNIT_ASSIGNED_CONTEXT ( ( #118, #1, #177 ) ) REPRESENTATION_CONTEXT ( 'NONE', 'WORKASPACE' ) );
#223 = DESIGN_CONTEXT ( 'detailed design', #133, 'design' ) ;
#224 = CC_DESIGN_PERSON_AND_ORGANIZATION_ASSIGNMENT ( #36, #38, ( #32 ) ) ;
#225 = LOCAL_TIME ( 14, 4, 20.00000000000000000, #140 ) ;
#226 = FACE_OUTER_BOUND ( 'NONE', #56, .T. ) ;
#227 = VECTOR ( 'NONE', #16, 1000.000000000000000 ) ;
#228 = PLANE ( 'NONE',  #134 ) ;
#229 = PLANE ( 'NONE',  #128 ) ;
#230 = ADVANCED_FACE ( 'NONE', ( #138 ), #131, .F. ) ;
#231 = CC_DESIGN_PERSON_AND_ORGANIZATION_ASSIGNMENT ( #234, #34, ( #141 ) ) ;
#232 = EDGE_CURVE ( 'NONE', #94, #150, #105, .T. ) ;
#233 = DATE_AND_TIME ( #155, #225 ) ;
#234 = PERSON_AND_ORGANIZATION ( #204, #84 ) ;
#235 = DATE_AND_TIME ( #89, #126 ) ;
#236 = ORIENTED_EDGE ( 'NONE', *, *, #117, .T. ) ;
#237 = ORIENTED_EDGE ( 'NONE', *, *, #39, .F. ) ;
ENDSEC;
END-ISO-10303-21;
