ISO-10303-21;
HEADER;
FILE_DESCRIPTION (( 'STEP AP203' ),
    '1' );
FILE_NAME ('TTN162823-E0W.STEP',
    '2019-10-24T14:20:07',
    ( '' ),
    ( '' ),
    'SwSTEP 2.0',
    'SolidWorks 2018',
    '' );
FILE_SCHEMA (( 'CONFIG_CONTROL_DESIGN' ));
ENDSEC;

DATA;
#1 = AXIS2_PLACEMENT_3D ( 'NONE', #50, #248, #55 ) ;
#2 = VECTOR ( 'NONE', #153, 1000.000000000000114 ) ;
#3 = EDGE_CURVE ( 'NONE', #302, #151, #237, .T. ) ;
#4 = PRODUCT_DEFINITION_SHAPE ( 'NONE', 'NONE',  #218 ) ;
#5 = LINE ( 'NONE', #166, #160 ) ;
#6 = EDGE_CURVE ( 'NONE', #192, #302, #282, .T. ) ;
#7 = VECTOR ( 'NONE', #244, 1000.000000000000000 ) ;
#8 = CARTESIAN_POINT ( 'NONE',  ( -1.088685713437557157, 1.417205058733374434, 2.053802534426062643 ) ) ;
#9 = CARTESIAN_POINT ( 'NONE',  ( 0.3613142865624427991, 2.867205058733374390, 3.290622229933477971 ) ) ;
#10 = CALENDAR_DATE ( 2019, 24, 10 ) ;
#11 = ORIENTED_EDGE ( 'NONE', *, *, #54, .F. ) ;
#12 = AXIS2_PLACEMENT_3D ( 'NONE', #281, #60, #137 ) ;
#13 = DIRECTION ( 'NONE',  ( -0.0000000000000000000, -0.0000000000000000000, 1.000000000000000000 ) ) ;
#14 = AXIS2_PLACEMENT_3D ( 'NONE', #202, #106, #52 ) ;
#15 = APPROVAL_DATE_TIME ( #79, #301 ) ;
#16 = CONICAL_SURFACE ( 'NONE', #231, 1.500000000000000000, 0.7853981633974375098 ) ;
#17 = DATE_TIME_ROLE ( 'classification_date' ) ;
#18 = CC_DESIGN_DATE_AND_TIME_ASSIGNMENT ( #155, #189, ( #218 ) ) ;
#19 = APPROVAL_STATUS ( 'not_yet_approved' ) ;
#20 = ADVANCED_FACE ( 'NONE', ( #201 ), #220, .T. ) ;
#21 = AXIS2_PLACEMENT_3D ( 'NONE', #117, #214, #69 ) ;
#22 = DIRECTION ( 'NONE',  ( 0.0000000000000000000, 0.0000000000000000000, 1.000000000000000000 ) ) ;
#23 = LINE ( 'NONE', #271, #57 ) ;
#24 = AXIS2_PLACEMENT_3D ( 'NONE', #128, #174, #277 ) ;
#25 = ORIENTED_EDGE ( 'NONE', *, *, #87, .T. ) ;
#26 = DESIGN_CONTEXT ( 'detailed design', #63, 'design' ) ;
#27 = SHAPE_DEFINITION_REPRESENTATION ( #4, #276 ) ;
#28 = FACE_OUTER_BOUND ( 'NONE', #260, .T. ) ;
#29 = ORIENTED_EDGE ( 'NONE', *, *, #3, .T. ) ;
#30 = EDGE_LOOP ( 'NONE', ( #48, #180, #45, #134 ) ) ;
#31 = DIRECTION ( 'NONE',  ( -1.182479344688504375E-16, -1.000000000000000000, 0.0000000000000000000 ) ) ;
#32 = CARTESIAN_POINT ( 'NONE',  ( 0.3613142865624427991, 1.417205058733374212, 2.053802534426062643 ) ) ;
#33 = CIRCLE ( 'NONE', #24, 1.500000000000000000 ) ;
#34 = CARTESIAN_POINT ( 'NONE',  ( -1.088685713437557157, 1.417205058733374212, 3.290622229933477971 ) ) ;
#35 = CC_DESIGN_PERSON_AND_ORGANIZATION_ASSIGNMENT ( #273, #163, ( #114 ) ) ;
#36 = DIRECTION ( 'NONE',  ( -0.0000000000000000000, -0.0000000000000000000, 1.000000000000000000 ) ) ;
#37 = PLANE ( 'NONE',  #320 ) ;
#38 = APPROVAL ( #19, 'UNSPECIFIED' ) ;
#39 = AXIS2_PLACEMENT_3D ( 'NONE', #278, #135, #138 ) ;
#40 = DIRECTION ( 'NONE',  ( 1.000000000000000000, 0.0000000000000000000, 0.0000000000000000000 ) ) ;
#41 = LOCAL_TIME ( 10, 20, 7.000000000000000000, #306 ) ;
#42 = APPROVAL_STATUS ( 'not_yet_approved' ) ;
#43 = VERTEX_POINT ( 'NONE', #321 ) ;
#44 = ORIENTED_EDGE ( 'NONE', *, *, #139, .T. ) ;
#45 = ORIENTED_EDGE ( 'NONE', *, *, #98, .F. ) ;
#46 = CC_DESIGN_PERSON_AND_ORGANIZATION_ASSIGNMENT ( #169, #161, ( #114 ) ) ;
#47 = COORDINATED_UNIVERSAL_TIME_OFFSET ( 5, 0, .BEHIND. ) ;
#48 = ORIENTED_EDGE ( 'NONE', *, *, #270, .F. ) ;
#49 = PERSON_AND_ORGANIZATION ( #100, #227 ) ;
#50 = CARTESIAN_POINT ( 'NONE',  ( 0.3613142865624427991, 1.417205058733374212, 2.103802534426064241 ) ) ;
#51 = EDGE_CURVE ( 'NONE', #245, #167, #107, .T. ) ;
#52 = DIRECTION ( 'NONE',  ( 1.000000000000000000, 0.0000000000000000000, 0.0000000000000000000 ) ) ;
#53 = DIRECTION ( 'NONE',  ( -0.7071067811865398012, 8.659560562354836716E-17, 0.7071067811865551223 ) ) ;
#54 = EDGE_CURVE ( 'NONE', #291, #167, #102, .T. ) ;
#55 = DIRECTION ( 'NONE',  ( 1.000000000000000000, 0.0000000000000000000, 0.0000000000000000000 ) ) ;
#56 = DATE_AND_TIME ( #195, #125 ) ;
#57 = VECTOR ( 'NONE', #53, 1000.000000000000114 ) ;
#58 = ORIENTED_EDGE ( 'NONE', *, *, #86, .F. ) ;
#59 = DIRECTION ( 'NONE',  ( 1.000000000000000000, 0.0000000000000000000, 0.0000000000000000000 ) ) ;
#60 = DIRECTION ( 'NONE',  ( -0.0000000000000000000, -0.0000000000000000000, 1.000000000000000000 ) ) ;
#61 = CARTESIAN_POINT ( 'NONE',  ( -1.138685713437557201, 1.417205058733374434, 2.103802534426064241 ) ) ;
#62 =( NAMED_UNIT ( * ) SI_UNIT ( $, .STERADIAN. ) SOLID_ANGLE_UNIT ( ) );
#63 = APPLICATION_CONTEXT ( 'configuration controlled 3d designs of mechanical parts and assemblies' ) ;
#64 = ADVANCED_FACE ( 'NONE', ( #250 ), #89, .T. ) ;
#65 = PERSON_AND_ORGANIZATION ( #100, #227 ) ;
#66 = APPLICATION_PROTOCOL_DEFINITION ( 'international standard', 'config_control_design', 1994, #63 ) ;
#67 = ORIENTED_EDGE ( 'NONE', *, *, #54, .T. ) ;
#68 = ORIENTED_EDGE ( 'NONE', *, *, #139, .F. ) ;
#69 = DIRECTION ( 'NONE',  ( 1.000000000000000000, 0.0000000000000000000, 0.0000000000000000000 ) ) ;
#70 = SECURITY_CLASSIFICATION ( '', '', #143 ) ;
#71 = EDGE_CURVE ( 'NONE', #151, #175, #228, .T. ) ;
#72 = APPROVAL_PERSON_ORGANIZATION ( #217, #301, #194 ) ;
#73 = PRODUCT ( 'TTN162823-E0W', 'TTN162823-E0W', '', ( #315 ) ) ;
#74 = ORIENTED_EDGE ( 'NONE', *, *, #51, .F. ) ;
#75 = FACE_OUTER_BOUND ( 'NONE', #199, .T. ) ;
#76 = DIRECTION ( 'NONE',  ( 1.000000000000000000, 0.0000000000000000000, 0.0000000000000000000 ) ) ;
#77 = UNCERTAINTY_MEASURE_WITH_UNIT (LENGTH_MEASURE( 1.000000000000000082E-05 ), #93, 'distance_accuracy_value', 'NONE');
#78 = CARTESIAN_POINT ( 'NONE',  ( 0.3613142865624427991, 1.417205058733374212, -0.5721974655739374693 ) ) ;
#79 = DATE_AND_TIME ( #10, #120 ) ;
#80 = CIRCLE ( 'NONE', #267, 1.449999999999999956 ) ;
#81 = MANIFOLD_SOLID_BREP ( 'TTN162788-1-solid1', #257 ) ;
#82 = DIRECTION ( 'NONE',  ( 1.000000000000000000, 0.0000000000000000000, 0.0000000000000000000 ) ) ;
#83 = CC_DESIGN_APPROVAL ( #38, ( #218 ) ) ;
#84 = DIRECTION ( 'NONE',  ( 0.0000000000000000000, 1.000000000000000000, 0.0000000000000000000 ) ) ;
#85 = FACE_OUTER_BOUND ( 'NONE', #212, .T. ) ;
#86 = EDGE_CURVE ( 'NONE', #175, #151, #294, .T. ) ;
#87 = EDGE_CURVE ( 'NONE', #192, #297, #99, .T. ) ;
#88 =( NAMED_UNIT ( * ) PLANE_ANGLE_UNIT ( ) SI_UNIT ( $, .RADIAN. ) );
#89 = CYLINDRICAL_SURFACE ( 'NONE', #196, 1.500000000000000000 ) ;
#90 = PERSON_AND_ORGANIZATION_ROLE ( 'classification_officer' ) ;
#91 = APPROVAL_ROLE ( '' ) ;
#92 = ADVANCED_FACE ( 'NONE', ( #28 ), #300, .T. ) ;
#93 =( LENGTH_UNIT ( ) NAMED_UNIT ( * ) SI_UNIT ( .MILLI., .METRE. ) );
#94 = DATE_AND_TIME ( #240, #132 ) ;
#95 = VECTOR ( 'NONE', #299, 1000.000000000000000 ) ;
#96 = EDGE_LOOP ( 'NONE', ( #266, #296, #11, #126 ) ) ;
#97 = CC_DESIGN_SECURITY_CLASSIFICATION ( #70, ( #114 ) ) ;
#98 = EDGE_CURVE ( 'NONE', #302, #230, #33, .T. ) ;
#99 = CIRCLE ( 'NONE', #209, 1.449999999999999956 ) ;
#100 = PERSON ( 'UNSPECIFIED', 'UNSPECIFIED', 'UNSPECIFIED', ('UNSPECIFIED'), ('UNSPECIFIED'), ('UNSPECIFIED') ) ;
#101 = CARTESIAN_POINT ( 'NONE',  ( 1.861314286562442799, 1.417205058733374212, 2.103802534426064241 ) ) ;
#102 = CIRCLE ( 'NONE', #221, 4.126000000000001222 ) ;
#103 = CC_DESIGN_PERSON_AND_ORGANIZATION_ASSIGNMENT ( #290, #90, ( #70 ) ) ;
#104 = VERTEX_POINT ( 'NONE', #34 ) ;
#105 = ORIENTED_EDGE ( 'NONE', *, *, #308, .T. ) ;
#106 = DIRECTION ( 'NONE',  ( -0.0000000000000000000, -0.0000000000000000000, 1.000000000000000000 ) ) ;
#107 = CIRCLE ( 'NONE', #268, 4.126000000000000334 ) ;
#108 = CC_DESIGN_DATE_AND_TIME_ASSIGNMENT ( #263, #17, ( #70 ) ) ;
#109 = ORIENTED_EDGE ( 'NONE', *, *, #152, .F. ) ;
#110 = CARTESIAN_POINT ( 'NONE',  ( 0.3613142865624427991, 1.417205058733374212, 2.053802534426062643 ) ) ;
#111 = ORIENTED_EDGE ( 'NONE', *, *, #308, .F. ) ;
#112 = CARTESIAN_POINT ( 'NONE',  ( 0.3613142865624427991, 1.417205058733374212, 2.053802534426062643 ) ) ;
#113 = CARTESIAN_POINT ( 'NONE',  ( 1.861314286562442799, 1.417205058733374212, 2.103802534426064241 ) ) ;
#114 = PRODUCT_DEFINITION_FORMATION_WITH_SPECIFIED_SOURCE ( 'ANY', '', #73, .NOT_KNOWN. ) ;
#115 = CARTESIAN_POINT ( 'NONE',  ( -1.138685713437556979, 1.417205058733374434, 3.240622229933478149 ) ) ;
#116 = CALENDAR_DATE ( 2019, 24, 10 ) ;
#117 = CARTESIAN_POINT ( 'NONE',  ( 0.3613142865624427991, 1.417205058733374212, 3.290622229933477971 ) ) ;
#118 = CARTESIAN_POINT ( 'NONE',  ( 0.0000000000000000000, 0.0000000000000000000, 0.0000000000000000000 ) ) ;
#119 = CC_DESIGN_APPROVAL ( #216, ( #70 ) ) ;
#120 = LOCAL_TIME ( 10, 20, 7.000000000000000000, #145 ) ;
#121 = ORIENTED_EDGE ( 'NONE', *, *, #304, .T. ) ;
#122 = ORIENTED_EDGE ( 'NONE', *, *, #87, .F. ) ;
#123 = EDGE_CURVE ( 'NONE', #297, #230, #23, .T. ) ;
#124 =( GEOMETRIC_REPRESENTATION_CONTEXT ( 3 ) GLOBAL_UNCERTAINTY_ASSIGNED_CONTEXT ( ( #77 ) ) GLOBAL_UNIT_ASSIGNED_CONTEXT ( ( #93, #88, #62 ) ) REPRESENTATION_CONTEXT ( 'NONE', 'WORKASPACE' ) );
#125 = LOCAL_TIME ( 10, 20, 7.000000000000000000, #47 ) ;
#126 = ORIENTED_EDGE ( 'NONE', *, *, #171, .T. ) ;
#127 = DIRECTION ( 'NONE',  ( 1.000000000000000000, 0.0000000000000000000, 0.0000000000000000000 ) ) ;
#128 = CARTESIAN_POINT ( 'NONE',  ( 0.3613142865624427991, 1.417205058733374212, 2.103802534426064241 ) ) ;
#129 = APPROVAL_DATE_TIME ( #56, #38 ) ;
#130 = DIRECTION ( 'NONE',  ( 1.000000000000000000, 0.0000000000000000000, 0.0000000000000000000 ) ) ;
#131 = DIRECTION ( 'NONE',  ( 1.000000000000000000, 0.0000000000000000000, 0.0000000000000000000 ) ) ;
#132 = LOCAL_TIME ( 10, 20, 7.000000000000000000, #233 ) ;
#133 = CARTESIAN_POINT ( 'NONE',  ( 1.811314286562442755, 1.417205058733374212, 2.053802534426062643 ) ) ;
#134 = ORIENTED_EDGE ( 'NONE', *, *, #6, .F. ) ;
#135 = DIRECTION ( 'NONE',  ( -0.0000000000000000000, -0.0000000000000000000, 1.000000000000000000 ) ) ;
#136 = PRODUCT_RELATED_PRODUCT_CATEGORY ( 'detail', '', ( #73 ) ) ;
#137 = DIRECTION ( 'NONE',  ( 1.000000000000000000, 0.0000000000000000000, 0.0000000000000000000 ) ) ;
#138 = DIRECTION ( 'NONE',  ( 1.000000000000000000, 0.0000000000000000000, 0.0000000000000000000 ) ) ;
#139 = EDGE_CURVE ( 'NONE', #43, #291, #162, .T. ) ;
#140 = CC_DESIGN_APPROVAL ( #301, ( #114 ) ) ;
#141 = DIRECTION ( 'NONE',  ( 0.0000000000000000000, 1.000000000000000000, 0.0000000000000000000 ) ) ;
#142 = ORIENTED_EDGE ( 'NONE', *, *, #316, .F. ) ;
#143 = SECURITY_CLASSIFICATION_LEVEL ( 'unclassified' ) ;
#144 = APPLICATION_CONTEXT ( 'configuration controlled 3d designs of mechanical parts and assemblies' ) ;
#145 = COORDINATED_UNIVERSAL_TIME_OFFSET ( 5, 0, .BEHIND. ) ;
#146 = CIRCLE ( 'NONE', #39, 1.500000000000000000 ) ;
#147 = FACE_OUTER_BOUND ( 'NONE', #30, .T. ) ;
#148 = VECTOR ( 'NONE', #292, 1000.000000000000114 ) ;
#149 = DIRECTION ( 'NONE',  ( 0.0000000000000000000, 0.0000000000000000000, -1.000000000000000000 ) ) ;
#150 = EDGE_LOOP ( 'NONE', ( #25, #234 ) ) ;
#151 = VERTEX_POINT ( 'NONE', #159 ) ;
#152 = EDGE_CURVE ( 'NONE', #230, #302, #146, .T. ) ;
#153 = DIRECTION ( 'NONE',  ( 0.7071067811865474617, 8.659560562354932858E-17, -0.7071067811865474617 ) ) ;
#154 = CARTESIAN_POINT ( 'NONE',  ( 0.3613142865624427991, 1.417205058733374212, 2.103802534426064241 ) ) ;
#155 = DATE_AND_TIME ( #184, #205 ) ;
#156 = CIRCLE ( 'NONE', #235, 1.449999999999999956 ) ;
#157 = DIRECTION ( 'NONE',  ( -0.0000000000000000000, -0.0000000000000000000, 1.000000000000000000 ) ) ;
#158 = ORIENTED_EDGE ( 'NONE', *, *, #3, .F. ) ;
#159 = CARTESIAN_POINT ( 'NONE',  ( 1.861314286562442577, 1.417205058733374212, 3.240622229933478149 ) ) ;
#160 = VECTOR ( 'NONE', #311, 1000.000000000000114 ) ;
#161 = PERSON_AND_ORGANIZATION_ROLE ( 'design_supplier' ) ;
#162 = CIRCLE ( 'NONE', #242, 1.449999999999999956 ) ;
#163 = PERSON_AND_ORGANIZATION_ROLE ( 'creator' ) ;
#164 = ADVANCED_FACE ( 'NONE', ( #198 ), #37, .F. ) ;
#165 = CONICAL_SURFACE ( 'NONE', #309, 1.499999999999999778, 0.7853981633974482790 ) ;
#166 = CARTESIAN_POINT ( 'NONE',  ( -1.138685713437556979, 1.417205058733374212, 3.240622229933478149 ) ) ;
#167 = VERTEX_POINT ( 'NONE', #251 ) ;
#168 = AXIS2_PLACEMENT_3D ( 'NONE', #179, #305, #84 ) ;
#169 = PERSON_AND_ORGANIZATION ( #100, #227 ) ;
#170 = AXIS2_PLACEMENT_3D ( 'NONE', #283, #213, #141 ) ;
#171 = EDGE_CURVE ( 'NONE', #291, #104, #275, .T. ) ;
#172 = LINE ( 'NONE', #307, #95 ) ;
#173 = CARTESIAN_POINT ( 'NONE',  ( 1.861314286562442799, 1.417205058733374212, 3.553802534426063087 ) ) ;
#174 = DIRECTION ( 'NONE',  ( -0.0000000000000000000, -0.0000000000000000000, 1.000000000000000000 ) ) ;
#175 = VERTEX_POINT ( 'NONE', #115 ) ;
#176 = ORIENTED_EDGE ( 'NONE', *, *, #123, .F. ) ;
#177 = DIRECTION ( 'NONE',  ( -0.0000000000000000000, -0.0000000000000000000, 1.000000000000000000 ) ) ;
#178 = ORIENTED_EDGE ( 'NONE', *, *, #98, .T. ) ;
#179 = CARTESIAN_POINT ( 'NONE',  ( 0.3613142865624427991, 1.417205058733374212, -0.5721974655739374693 ) ) ;
#180 = ORIENTED_EDGE ( 'NONE', *, *, #123, .T. ) ;
#181 = CARTESIAN_POINT ( 'NONE',  ( 0.3613142865624426325, -0.03279494126662578501, 3.290622229933477971 ) ) ;
#182 = ADVANCED_FACE ( 'NONE', ( #85 ), #165, .T. ) ;
#183 = DIRECTION ( 'NONE',  ( 0.0000000000000000000, 0.0000000000000000000, -1.000000000000000000 ) ) ;
#184 = CALENDAR_DATE ( 2019, 24, 10 ) ;
#185 = DIRECTION ( 'NONE',  ( 0.0000000000000000000, 0.0000000000000000000, -1.000000000000000000 ) ) ;
#186 = AXIS2_PLACEMENT_3D ( 'NONE', #204, #185, #303 ) ;
#187 = APPROVAL_STATUS ( 'not_yet_approved' ) ;
#188 = APPROVAL_PERSON_ORGANIZATION ( #65, #38, #91 ) ;
#189 = DATE_TIME_ROLE ( 'creation_date' ) ;
#190 = LINE ( 'NONE', #206, #2 ) ;
#191 = EDGE_CURVE ( 'NONE', #230, #175, #172, .T. ) ;
#192 = VERTEX_POINT ( 'NONE', #133 ) ;
#193 = ORIENTED_EDGE ( 'NONE', *, *, #152, .T. ) ;
#194 = APPROVAL_ROLE ( '' ) ;
#195 = CALENDAR_DATE ( 2019, 24, 10 ) ;
#196 = AXIS2_PLACEMENT_3D ( 'NONE', #246, #249, #130 ) ;
#197 = CARTESIAN_POINT ( 'NONE',  ( 0.3613142865624427991, 1.417205058733374212, 3.553802534426063087 ) ) ;
#198 = FACE_OUTER_BOUND ( 'NONE', #150, .T. ) ;
#199 = EDGE_LOOP ( 'NONE', ( #74, #121, #44, #67 ) ) ;
#200 = APPROVAL_DATE_TIME ( #94, #216 ) ;
#201 = FACE_OUTER_BOUND ( 'NONE', #287, .T. ) ;
#202 = CARTESIAN_POINT ( 'NONE',  ( 0.3613142865624427991, 1.417205058733374212, 3.240622229933478149 ) ) ;
#203 = APPROVAL_PERSON_ORGANIZATION ( #49, #216, #258 ) ;
#204 = CARTESIAN_POINT ( 'NONE',  ( 0.3613142865624427991, 1.417205058733374212, 3.240622229933478149 ) ) ;
#205 = LOCAL_TIME ( 10, 20, 7.000000000000000000, #264 ) ;
#206 = CARTESIAN_POINT ( 'NONE',  ( 1.861314286562442577, 1.417205058733374434, 3.240622229933478149 ) ) ;
#207 = CARTESIAN_POINT ( 'NONE',  ( 0.3613142865624427991, 1.417205058733374212, 3.290622229933477971 ) ) ;
#208 = FACE_OUTER_BOUND ( 'NONE', #96, .T. ) ;
#209 = AXIS2_PLACEMENT_3D ( 'NONE', #32, #274, #225 ) ;
#210 = SPHERICAL_SURFACE ( 'NONE', #168, 4.126000000000000334 ) ;
#211 = ADVANCED_FACE ( 'NONE', ( #269 ), #215, .T. ) ;
#212 = EDGE_LOOP ( 'NONE', ( #111, #256, #142, #310, #280 ) ) ;
#213 = DIRECTION ( 'NONE',  ( -1.000000000000000000, 0.0000000000000000000, 0.0000000000000000000 ) ) ;
#214 = DIRECTION ( 'NONE',  ( -0.0000000000000000000, -0.0000000000000000000, 1.000000000000000000 ) ) ;
#215 = CONICAL_SURFACE ( 'NONE', #186, 1.499999999999999778, 0.7853981633974482790 ) ;
#216 = APPROVAL ( #187, 'UNSPECIFIED' ) ;
#217 = PERSON_AND_ORGANIZATION ( #100, #227 ) ;
#218 = PRODUCT_DEFINITION ( 'UNKNOWN', '', #114, #26 ) ;
#219 = CARTESIAN_POINT ( 'NONE',  ( 0.3613142865624427991, 1.417205058733374212, -0.5721974655739374693 ) ) ;
#220 = CYLINDRICAL_SURFACE ( 'NONE', #247, 1.500000000000000000 ) ;
#221 = AXIS2_PLACEMENT_3D ( 'NONE', #78, #76, #149 ) ;
#222 = ORIENTED_EDGE ( 'NONE', *, *, #71, .F. ) ;
#223 = ORIENTED_EDGE ( 'NONE', *, *, #191, .F. ) ;
#224 = CARTESIAN_POINT ( 'NONE',  ( 0.3613142865624427991, 1.417205058733374212, 3.240622229933478149 ) ) ;
#225 = DIRECTION ( 'NONE',  ( 1.000000000000000000, 0.0000000000000000000, 0.0000000000000000000 ) ) ;
#226 = DIRECTION ( 'NONE',  ( 0.0000000000000000000, 0.0000000000000000000, -1.000000000000000000 ) ) ;
#227 = ORGANIZATION ( 'UNSPECIFIED', 'UNSPECIFIED', '' ) ;
#228 = CIRCLE ( 'NONE', #14, 1.499999999999999778 ) ;
#229 = DIRECTION ( 'NONE',  ( 1.000000000000000000, 0.0000000000000000000, 0.0000000000000000000 ) ) ;
#230 = VERTEX_POINT ( 'NONE', #61 ) ;
#231 = AXIS2_PLACEMENT_3D ( 'NONE', #154, #157, #40 ) ;
#232 = DIRECTION ( 'NONE',  ( -1.000000000000000000, 0.0000000000000000000, 0.0000000000000000000 ) ) ;
#233 = COORDINATED_UNIVERSAL_TIME_OFFSET ( 5, 0, .BEHIND. ) ;
#234 = ORIENTED_EDGE ( 'NONE', *, *, #270, .T. ) ;
#235 = AXIS2_PLACEMENT_3D ( 'NONE', #255, #177, #82 ) ;
#236 = PERSON_AND_ORGANIZATION ( #100, #227 ) ;
#237 = LINE ( 'NONE', #173, #7 ) ;
#238 = ADVANCED_FACE ( 'NONE', ( #147 ), #16, .T. ) ;
#239 = DIRECTION ( 'NONE',  ( 1.000000000000000000, 0.0000000000000000000, 0.0000000000000000000 ) ) ;
#240 = CALENDAR_DATE ( 2019, 24, 10 ) ;
#241 = ORIENTED_EDGE ( 'NONE', *, *, #71, .T. ) ;
#242 = AXIS2_PLACEMENT_3D ( 'NONE', #207, #13, #59 ) ;
#243 = DIRECTION ( 'NONE',  ( -0.0000000000000000000, -0.0000000000000000000, 1.000000000000000000 ) ) ;
#244 = DIRECTION ( 'NONE',  ( -0.0000000000000000000, -0.0000000000000000000, 1.000000000000000000 ) ) ;
#245 = VERTEX_POINT ( 'NONE', #181 ) ;
#246 = CARTESIAN_POINT ( 'NONE',  ( 0.3613142865624427991, 1.417205058733374212, 3.553802534426063087 ) ) ;
#247 = AXIS2_PLACEMENT_3D ( 'NONE', #197, #243, #127 ) ;
#248 = DIRECTION ( 'NONE',  ( -0.0000000000000000000, -0.0000000000000000000, 1.000000000000000000 ) ) ;
#249 = DIRECTION ( 'NONE',  ( -0.0000000000000000000, -0.0000000000000000000, 1.000000000000000000 ) ) ;
#250 = FACE_OUTER_BOUND ( 'NONE', #319, .T. ) ;
#251 = CARTESIAN_POINT ( 'NONE',  ( 0.3613142865624427991, 1.417205058733374434, 3.553802534426063087 ) ) ;
#252 = DIRECTION ( 'NONE',  ( 1.000000000000000000, 0.0000000000000000000, 0.0000000000000000000 ) ) ;
#253 = CARTESIAN_POINT ( 'NONE',  ( 0.3613142865624427991, 1.417205058733374212, 3.240622229933478149 ) ) ;
#254 = PERSON_AND_ORGANIZATION ( #100, #227 ) ;
#255 = CARTESIAN_POINT ( 'NONE',  ( 0.3613142865624427991, 1.417205058733374212, 3.290622229933477971 ) ) ;
#256 = ORIENTED_EDGE ( 'NONE', *, *, #304, .F. ) ;
#257 = CLOSED_SHELL ( 'NONE', ( #238, #313, #211, #64, #164, #20, #182, #284, #92 ) ) ;
#258 = APPROVAL_ROLE ( '' ) ;
#259 = ORIENTED_EDGE ( 'NONE', *, *, #171, .F. ) ;
#260 = EDGE_LOOP ( 'NONE', ( #176, #122, #318, #109 ) ) ;
#261 = PERSON_AND_ORGANIZATION_ROLE ( 'creator' ) ;
#262 = ORIENTED_EDGE ( 'NONE', *, *, #191, .T. ) ;
#263 = DATE_AND_TIME ( #116, #41 ) ;
#264 = COORDINATED_UNIVERSAL_TIME_OFFSET ( 5, 0, .BEHIND. ) ;
#265 = SPHERICAL_SURFACE ( 'NONE', #170, 4.126000000000000334 ) ;
#266 = ORIENTED_EDGE ( 'NONE', *, *, #316, .T. ) ;
#267 = AXIS2_PLACEMENT_3D ( 'NONE', #110, #183, #229 ) ;
#268 = AXIS2_PLACEMENT_3D ( 'NONE', #219, #295, #31 ) ;
#269 = FACE_OUTER_BOUND ( 'NONE', #298, .T. ) ;
#270 = EDGE_CURVE ( 'NONE', #297, #192, #80, .T. ) ;
#271 = CARTESIAN_POINT ( 'NONE',  ( -1.138685713437557201, 1.417205058733374434, 2.103802534426064241 ) ) ;
#272 = AXIS2_PLACEMENT_3D ( 'NONE', #118, #22, #239 ) ;
#273 = PERSON_AND_ORGANIZATION ( #100, #227 ) ;
#274 = DIRECTION ( 'NONE',  ( 0.0000000000000000000, 0.0000000000000000000, -1.000000000000000000 ) ) ;
#275 = CIRCLE ( 'NONE', #12, 1.449999999999999956 ) ;
#276 = ADVANCED_BREP_SHAPE_REPRESENTATION ( 'TTN162823-E0W', ( #81, #272 ), #124 ) ;
#277 = DIRECTION ( 'NONE',  ( 1.000000000000000000, 0.0000000000000000000, 0.0000000000000000000 ) ) ;
#278 = CARTESIAN_POINT ( 'NONE',  ( 0.3613142865624427991, 1.417205058733374212, 2.103802534426064241 ) ) ;
#279 = DIRECTION ( 'NONE',  ( 0.0000000000000000000, -0.0000000000000000000, 1.000000000000000000 ) ) ;
#280 = ORIENTED_EDGE ( 'NONE', *, *, #86, .T. ) ;
#281 = CARTESIAN_POINT ( 'NONE',  ( 0.3613142865624427991, 1.417205058733374212, 3.290622229933477971 ) ) ;
#282 = LINE ( 'NONE', #101, #148 ) ;
#283 = CARTESIAN_POINT ( 'NONE',  ( 0.3613142865624427991, 1.417205058733374212, -0.5721974655739374693 ) ) ;
#284 = ADVANCED_FACE ( 'NONE', ( #75 ), #210, .T. ) ;
#285 = CC_DESIGN_PERSON_AND_ORGANIZATION_ASSIGNMENT ( #236, #261, ( #218 ) ) ;
#286 = APPLICATION_PROTOCOL_DEFINITION ( 'international standard', 'config_control_design', 1994, #144 ) ;
#287 = EDGE_LOOP ( 'NONE', ( #223, #193, #29, #58 ) ) ;
#288 = ORIENTED_EDGE ( 'NONE', *, *, #314, .F. ) ;
#289 = AXIS2_PLACEMENT_3D ( 'NONE', #224, #36, #131 ) ;
#290 = PERSON_AND_ORGANIZATION ( #100, #227 ) ;
#291 = VERTEX_POINT ( 'NONE', #9 ) ;
#292 = DIRECTION ( 'NONE',  ( 0.7071067811865398012, 0.0000000000000000000, 0.7071067811865551223 ) ) ;
#293 = CIRCLE ( 'NONE', #21, 1.449999999999999956 ) ;
#294 = CIRCLE ( 'NONE', #289, 1.499999999999999778 ) ;
#295 = DIRECTION ( 'NONE',  ( -1.000000000000000000, 1.224646799147353207E-16, 0.0000000000000000000 ) ) ;
#296 = ORIENTED_EDGE ( 'NONE', *, *, #51, .T. ) ;
#297 = VERTEX_POINT ( 'NONE', #8 ) ;
#298 = EDGE_LOOP ( 'NONE', ( #68, #105, #241, #288, #259 ) ) ;
#299 = DIRECTION ( 'NONE',  ( -0.0000000000000000000, -0.0000000000000000000, 1.000000000000000000 ) ) ;
#300 = CONICAL_SURFACE ( 'NONE', #1, 1.500000000000000000, 0.7853981633974375098 ) ;
#301 = APPROVAL ( #42, 'UNSPECIFIED' ) ;
#302 = VERTEX_POINT ( 'NONE', #113 ) ;
#303 = DIRECTION ( 'NONE',  ( -1.000000000000000000, 0.0000000000000000000, 0.0000000000000000000 ) ) ;
#304 = EDGE_CURVE ( 'NONE', #245, #43, #156, .T. ) ;
#305 = DIRECTION ( 'NONE',  ( -1.000000000000000000, 0.0000000000000000000, 0.0000000000000000000 ) ) ;
#306 = COORDINATED_UNIVERSAL_TIME_OFFSET ( 5, 0, .BEHIND. ) ;
#307 = CARTESIAN_POINT ( 'NONE',  ( -1.138685713437557201, 1.417205058733374434, 3.553802534426063087 ) ) ;
#308 = EDGE_CURVE ( 'NONE', #43, #151, #190, .T. ) ;
#309 = AXIS2_PLACEMENT_3D ( 'NONE', #253, #226, #232 ) ;
#310 = ORIENTED_EDGE ( 'NONE', *, *, #314, .T. ) ;
#311 = DIRECTION ( 'NONE',  ( -0.7071067811865474617, 0.0000000000000000000, -0.7071067811865474617 ) ) ;
#312 = PERSON_AND_ORGANIZATION_ROLE ( 'design_owner' ) ;
#313 = ADVANCED_FACE ( 'NONE', ( #208 ), #265, .T. ) ;
#314 = EDGE_CURVE ( 'NONE', #104, #175, #5, .T. ) ;
#315 = MECHANICAL_CONTEXT ( 'NONE', #144, 'mechanical' ) ;
#316 = EDGE_CURVE ( 'NONE', #104, #245, #293, .T. ) ;
#317 = CC_DESIGN_PERSON_AND_ORGANIZATION_ASSIGNMENT ( #254, #312, ( #73 ) ) ;
#318 = ORIENTED_EDGE ( 'NONE', *, *, #6, .T. ) ;
#319 = EDGE_LOOP ( 'NONE', ( #178, #262, #222, #158 ) ) ;
#320 = AXIS2_PLACEMENT_3D ( 'NONE', #112, #279, #252 ) ;
#321 = CARTESIAN_POINT ( 'NONE',  ( 1.811314286562442755, 1.417205058733374434, 3.290622229933477971 ) ) ;
ENDSEC;
END-ISO-10303-21;
