ISO-10303-21;
HEADER;
FILE_DESCRIPTION (( 'STEP AP203' ),
    '1' );
FILE_NAME ('step_32503.step',
    '2014-06-05T19:28:02',
    ( '' ),
    ( '' ),
    'SwSTEP 2.0',
    'SolidWorks 2014',
    '' );
FILE_SCHEMA (( 'CONFIG_CONTROL_DESIGN' ));
ENDSEC;

DATA;
#1 = DIRECTION ( 'NONE',  ( -0.0000000000000000000, 1.000000000000000000, -0.0000000000000000000 ) ) ;
#2 = FACE_OUTER_BOUND ( 'NONE', #99, .T. ) ;
#3 = DIRECTION ( 'NONE',  ( -0.7071067811865475700, 0.7071067811865475700, 0.0000000000000000000 ) ) ;
#4 = VECTOR ( 'NONE', #149, 1000.000000000000000 ) ;
#5 =( LENGTH_UNIT ( ) NAMED_UNIT ( * ) SI_UNIT ( .MILLI., .METRE. ) );
#6 = PRODUCT_DEFINITION_SHAPE ( 'NONE', 'NONE',  #88 ) ;
#7 = PERSON_AND_ORGANIZATION_ROLE ( 'classification_officer' ) ;
#8 = PERSON_AND_ORGANIZATION ( #123, #288 ) ;
#9 = DATE_AND_TIME ( #285, #86 ) ;
#10 = CC_DESIGN_APPROVAL ( #186, ( #88 ) ) ;
#11 = DIRECTION ( 'NONE',  ( -1.000000000000000000, 4.419121949999724100E-017, 0.0000000000000000000 ) ) ;
#12 = APPROVAL_PERSON_ORGANIZATION ( #158, #270, #191 ) ;
#13 = DIRECTION ( 'NONE',  ( 0.0000000000000000000, 0.0000000000000000000, 1.000000000000000000 ) ) ;
#14 = ORIENTED_EDGE ( 'NONE', *, *, #144, .F. ) ;
#15 = CALENDAR_DATE ( 2014, 5, 6 ) ;
#16 = CARTESIAN_POINT ( 'NONE',  ( 0.0000000000000000000, 15.00000000000000000, 15.00000000000000000 ) ) ;
#17 = VECTOR ( 'NONE', #265, 1000.000000000000100 ) ;
#18 = CARTESIAN_POINT ( 'NONE',  ( 0.0000000000000000000, 15.00000000000000000, 0.0000000000000000000 ) ) ;
#19 = ORIENTED_EDGE ( 'NONE', *, *, #52, .F. ) ;
#20 = VECTOR ( 'NONE', #1, 1000.000000000000000 ) ;
#21 = ORIENTED_EDGE ( 'NONE', *, *, #211, .T. ) ;
#22 = CC_DESIGN_PERSON_AND_ORGANIZATION_ASSIGNMENT ( #8, #110, ( #243 ) ) ;
#23 = PERSON_AND_ORGANIZATION_ROLE ( 'creator' ) ;
#24 = CARTESIAN_POINT ( 'NONE',  ( 15.00000000000000000, 15.00000000000000000, 0.0000000000000000000 ) ) ;
#25 = AXIS2_PLACEMENT_3D ( 'NONE', #165, #280, #180 ) ;
#26 = SHAPE_DEFINITION_REPRESENTATION ( #6, #57 ) ;
#27 = COORDINATED_UNIVERSAL_TIME_OFFSET ( 7, 0, .BEHIND. ) ;
#28 = DIRECTION ( 'NONE',  ( -0.0000000000000000000, -0.0000000000000000000, -1.000000000000000000 ) ) ;
#29 = DIRECTION ( 'NONE',  ( -1.000000000000000000, 0.0000000000000000000, 0.0000000000000000000 ) ) ;
#30 = CC_DESIGN_DATE_AND_TIME_ASSIGNMENT ( #41, #278, ( #138 ) ) ;
#31 = AXIS2_PLACEMENT_3D ( 'NONE', #74, #75, #226 ) ;
#32 = LOCAL_TIME ( 12, 28, 2.000000000000000000, #27 ) ;
#33 = COORDINATED_UNIVERSAL_TIME_OFFSET ( 7, 0, .BEHIND. ) ;
#34 = APPROVAL_STATUS ( 'not_yet_approved' ) ;
#35 = ORIENTED_EDGE ( 'NONE', *, *, #69, .T. ) ;
#36 = DIRECTION ( 'NONE',  ( 0.0000000000000000000, -0.0000000000000000000, -1.000000000000000000 ) ) ;
#37 = LINE ( 'NONE', #308, #262 ) ;
#38 = ADVANCED_FACE ( 'NONE', ( #269 ), #51, .F. ) ;
#39 = DIRECTION ( 'NONE',  ( 1.000000000000000000, 0.0000000000000000000, -0.0000000000000000000 ) ) ;
#40 = CARTESIAN_POINT ( 'NONE',  ( 15.00000000000000000, -6.628682924999585600E-016, 0.0000000000000000000 ) ) ;
#41 = DATE_AND_TIME ( #184, #268 ) ;
#42 = CARTESIAN_POINT ( 'NONE',  ( 15.00000000000000000, 15.00000000000000000, 15.00000000000000000 ) ) ;
#43 = APPROVAL_PERSON_ORGANIZATION ( #261, #137, #118 ) ;
#44 = DATE_AND_TIME ( #15, #32 ) ;
#45 = CALENDAR_DATE ( 2014, 5, 6 ) ;
#46 = AXIS2_PLACEMENT_3D ( 'NONE', #314, #249, #71 ) ;
#47 = ORIENTED_EDGE ( 'NONE', *, *, #122, .F. ) ;
#48 = DIRECTION ( 'NONE',  ( -0.0000000000000000000, -1.000000000000000000, -0.0000000000000000000 ) ) ;
#49 = CLOSED_SHELL ( 'NONE', ( #307, #242, #169, #189, #140 ) ) ;
#50 = CARTESIAN_POINT ( 'NONE',  ( 15.00000000000000000, 15.00000000000000000, 0.0000000000000000000 ) ) ;
#51 = PLANE ( 'NONE',  #114 ) ;
#52 = EDGE_CURVE ( 'NONE', #219, #209, #305, .T. ) ;
#53 = LINE ( 'NONE', #167, #90 ) ;
#54 = ORIENTED_EDGE ( 'NONE', *, *, #56, .T. ) ;
#55 = CLOSED_SHELL ( 'NONE', ( #260, #66, #92, #38, #287 ) ) ;
#56 = EDGE_CURVE ( 'NONE', #179, #164, #53, .T. ) ;
#57 = ADVANCED_BREP_SHAPE_REPRESENTATION ( 'step_32503', ( #105, #162, #25 ), #58 ) ;
#58 =( GEOMETRIC_REPRESENTATION_CONTEXT ( 3 ) GLOBAL_UNCERTAINTY_ASSIGNED_CONTEXT ( ( #232 ) ) GLOBAL_UNIT_ASSIGNED_CONTEXT ( ( #5, #207, #83 ) ) REPRESENTATION_CONTEXT ( 'NONE', 'WORKASPACE' ) );
#59 = EDGE_LOOP ( 'NONE', ( #291, #139, #266 ) ) ;
#60 = ORIENTED_EDGE ( 'NONE', *, *, #237, .F. ) ;
#61 = ORIENTED_EDGE ( 'NONE', *, *, #150, .F. ) ;
#62 = DIRECTION ( 'NONE',  ( 0.0000000000000000000, 0.0000000000000000000, 1.000000000000000000 ) ) ;
#63 = DIRECTION ( 'NONE',  ( -0.0000000000000000000, 1.000000000000000000, -0.0000000000000000000 ) ) ;
#64 = ORIENTED_EDGE ( 'NONE', *, *, #150, .T. ) ;
#65 = CC_DESIGN_PERSON_AND_ORGANIZATION_ASSIGNMENT ( #250, #23, ( #88 ) ) ;
#66 = ADVANCED_FACE ( 'NONE', ( #168 ), #294, .F. ) ;
#67 = VECTOR ( 'NONE', #193, 1000.000000000000000 ) ;
#68 = APPROVAL_DATE_TIME ( #44, #270 ) ;
#69 = EDGE_CURVE ( 'NONE', #219, #77, #37, .T. ) ;
#70 = PERSON_AND_ORGANIZATION_ROLE ( 'design_owner' ) ;
#71 = DIRECTION ( 'NONE',  ( 0.7071067811865474600, 0.7071067811865474600, 0.0000000000000000000 ) ) ;
#72 = DATE_AND_TIME ( #124, #82 ) ;
#73 = CARTESIAN_POINT ( 'NONE',  ( 15.00000000000000000, -6.628682924999585600E-016, 15.00000000000000000 ) ) ;
#74 = CARTESIAN_POINT ( 'NONE',  ( 0.0000000000000000000, 0.0000000000000000000, 15.00000000000000000 ) ) ;
#75 = DIRECTION ( 'NONE',  ( 1.000000000000000000, 0.0000000000000000000, 0.0000000000000000000 ) ) ;
#76 = CARTESIAN_POINT ( 'NONE',  ( 0.0000000000000000000, 0.0000000000000000000, 0.0000000000000000000 ) ) ;
#77 = VERTEX_POINT ( 'NONE', #120 ) ;
#78 = ORIENTED_EDGE ( 'NONE', *, *, #289, .T. ) ;
#79 = DIRECTION ( 'NONE',  ( -1.000000000000000000, 0.0000000000000000000, 0.0000000000000000000 ) ) ;
#80 = APPLICATION_PROTOCOL_DEFINITION ( 'international standard', 'config_control_design', 1994, #306 ) ;
#81 = ORIENTED_EDGE ( 'NONE', *, *, #172, .F. ) ;
#82 = LOCAL_TIME ( 12, 28, 2.000000000000000000, #163 ) ;
#83 =( NAMED_UNIT ( * ) SI_UNIT ( $, .STERADIAN. ) SOLID_ANGLE_UNIT ( ) );
#84 = CARTESIAN_POINT ( 'NONE',  ( 0.0000000000000000000, 15.00000000000000000, 15.00000000000000000 ) ) ;
#85 = CARTESIAN_POINT ( 'NONE',  ( 15.00000000000000000, 15.00000000000000000, 15.00000000000000000 ) ) ;
#86 = LOCAL_TIME ( 12, 28, 2.000000000000000000, #33 ) ;
#87 = DIRECTION ( 'NONE',  ( 0.0000000000000000000, 0.0000000000000000000, -1.000000000000000000 ) ) ;
#88 = PRODUCT_DEFINITION ( 'UNKNOWN', '', #243, #154 ) ;
#89 = APPROVAL_STATUS ( 'not_yet_approved' ) ;
#90 = VECTOR ( 'NONE', #303, 1000.000000000000000 ) ;
#91 = LINE ( 'NONE', #238, #128 ) ;
#92 = ADVANCED_FACE ( 'NONE', ( #259 ), #94, .F. ) ;
#93 = CARTESIAN_POINT ( 'NONE',  ( 0.0000000000000000000, 15.00000000000000000, 15.00000000000000000 ) ) ;
#94 = PLANE ( 'NONE',  #31 ) ;
#95 = ORIENTED_EDGE ( 'NONE', *, *, #69, .F. ) ;
#96 = COORDINATED_UNIVERSAL_TIME_OFFSET ( 7, 0, .BEHIND. ) ;
#97 = LINE ( 'NONE', #129, #199 ) ;
#98 = APPLICATION_PROTOCOL_DEFINITION ( 'international standard', 'config_control_design', 1994, #221 ) ;
#99 = EDGE_LOOP ( 'NONE', ( #239, #297, #224, #244 ) ) ;
#100 = PERSON_AND_ORGANIZATION ( #123, #288 ) ;
#101 = EDGE_CURVE ( 'NONE', #234, #179, #309, .T. ) ;
#102 = AXIS2_PLACEMENT_3D ( 'NONE', #111, #62, #39 ) ;
#103 = VECTOR ( 'NONE', #320, 1000.000000000000100 ) ;
#104 = ORIENTED_EDGE ( 'NONE', *, *, #144, .T. ) ;
#105 = MANIFOLD_SOLID_BREP ( 'Boss-Extrude1', #55 ) ;
#106 = DIRECTION ( 'NONE',  ( -0.0000000000000000000, -0.0000000000000000000, -1.000000000000000000 ) ) ;
#107 = CARTESIAN_POINT ( 'NONE',  ( 15.00000000000000000, 15.00000000000000000, 0.0000000000000000000 ) ) ;
#108 = EDGE_LOOP ( 'NONE', ( #126, #245, #47 ) ) ;
#109 = VERTEX_POINT ( 'NONE', #151 ) ;
#110 = PERSON_AND_ORGANIZATION_ROLE ( 'design_supplier' ) ;
#111 = CARTESIAN_POINT ( 'NONE',  ( 0.0000000000000000000, 0.0000000000000000000, 0.0000000000000000000 ) ) ;
#112 = DIRECTION ( 'NONE',  ( -0.0000000000000000000, -0.0000000000000000000, -1.000000000000000000 ) ) ;
#113 = LINE ( 'NONE', #24, #206 ) ;
#114 = AXIS2_PLACEMENT_3D ( 'NONE', #275, #87, #156 ) ;
#115 = CARTESIAN_POINT ( 'NONE',  ( 15.00000000000000000, 15.00000000000000000, 15.00000000000000000 ) ) ;
#116 = EDGE_LOOP ( 'NONE', ( #78, #81, #142, #64 ) ) ;
#117 = CC_DESIGN_PERSON_AND_ORGANIZATION_ASSIGNMENT ( #204, #70, ( #145 ) ) ;
#118 = APPROVAL_ROLE ( '' ) ;
#119 = LINE ( 'NONE', #73, #67 ) ;
#120 = CARTESIAN_POINT ( 'NONE',  ( 0.0000000000000000000, 15.00000000000000000, 0.0000000000000000000 ) ) ;
#121 = CARTESIAN_POINT ( 'NONE',  ( 0.0000000000000000000, 0.0000000000000000000, 0.0000000000000000000 ) ) ;
#122 = EDGE_CURVE ( 'NONE', #319, #77, #213, .T. ) ;
#123 = PERSON ( 'UNSPECIFIED', 'UNSPECIFIED', 'UNSPECIFIED', ('UNSPECIFIED'), ('UNSPECIFIED'), ('UNSPECIFIED') ) ;
#124 = CALENDAR_DATE ( 2014, 5, 6 ) ;
#125 = CARTESIAN_POINT ( 'NONE',  ( 15.00000000000000000, 15.00000000000000000, 15.00000000000000000 ) ) ;
#126 = ORIENTED_EDGE ( 'NONE', *, *, #289, .F. ) ;
#127 = DIRECTION ( 'NONE',  ( 1.000000000000000000, -4.419121949999724100E-017, -0.0000000000000000000 ) ) ;
#128 = VECTOR ( 'NONE', #28, 1000.000000000000000 ) ;
#129 = CARTESIAN_POINT ( 'NONE',  ( 0.0000000000000000000, 0.0000000000000000000, 15.00000000000000000 ) ) ;
#130 = AXIS2_PLACEMENT_3D ( 'NONE', #125, #3, #251 ) ;
#131 = PERSON_AND_ORGANIZATION ( #123, #288 ) ;
#132 = PLANE ( 'NONE',  #215 ) ;
#133 = PLANE ( 'NONE',  #157 ) ;
#134 = FACE_OUTER_BOUND ( 'NONE', #228, .T. ) ;
#135 = VERTEX_POINT ( 'NONE', #212 ) ;
#136 = CC_DESIGN_SECURITY_CLASSIFICATION ( #138, ( #243 ) ) ;
#137 = APPROVAL ( #34, 'UNSPECIFIED' ) ;
#138 = SECURITY_CLASSIFICATION ( '', '', #220 ) ;
#139 = ORIENTED_EDGE ( 'NONE', *, *, #290, .T. ) ;
#140 = ADVANCED_FACE ( 'NONE', ( #214 ), #208, .F. ) ;
#141 = DIRECTION ( 'NONE',  ( 0.0000000000000000000, -1.000000000000000000, 0.0000000000000000000 ) ) ;
#142 = ORIENTED_EDGE ( 'NONE', *, *, #223, .F. ) ;
#143 = ORIENTED_EDGE ( 'NONE', *, *, #181, .F. ) ;
#144 = EDGE_CURVE ( 'NONE', #179, #276, #119, .T. ) ;
#145 = PRODUCT ( 'step_32503', 'step_32503', '', ( #248 ) ) ;
#146 = DIRECTION ( 'NONE',  ( 0.7071067811865474600, 0.7071067811865474600, -0.0000000000000000000 ) ) ;
#147 = ORIENTED_EDGE ( 'NONE', *, *, #290, .F. ) ;
#148 = APPROVAL_DATE_TIME ( #9, #186 ) ;
#149 = DIRECTION ( 'NONE',  ( -0.0000000000000000000, -0.0000000000000000000, -1.000000000000000000 ) ) ;
#150 = EDGE_CURVE ( 'NONE', #209, #183, #97, .T. ) ;
#151 = CARTESIAN_POINT ( 'NONE',  ( 15.00000000000000000, 15.00000000000000000, 0.0000000000000000000 ) ) ;
#152 = LINE ( 'NONE', #121, #103 ) ;
#153 = DIRECTION ( 'NONE',  ( -0.0000000000000000000, -1.000000000000000000, -0.0000000000000000000 ) ) ;
#154 = DESIGN_CONTEXT ( 'detailed design', #221, 'design' ) ;
#155 = DATE_AND_TIME ( #45, #175 ) ;
#156 = DIRECTION ( 'NONE',  ( -1.000000000000000000, 0.0000000000000000000, 0.0000000000000000000 ) ) ;
#157 = AXIS2_PLACEMENT_3D ( 'NONE', #115, #29, #13 ) ;
#158 = PERSON_AND_ORGANIZATION ( #123, #288 ) ;
#159 = ORIENTED_EDGE ( 'NONE', *, *, #195, .T. ) ;
#160 = CARTESIAN_POINT ( 'NONE',  ( 15.00000000000000000, -6.628682924999585600E-016, 15.00000000000000000 ) ) ;
#161 = EDGE_CURVE ( 'NONE', #234, #109, #235, .T. ) ;
#162 = MANIFOLD_SOLID_BREP ( 'Boss-Extrude2', #49 ) ;
#163 = COORDINATED_UNIVERSAL_TIME_OFFSET ( 7, 0, .BEHIND. ) ;
#164 = VERTEX_POINT ( 'NONE', #286 ) ;
#165 = CARTESIAN_POINT ( 'NONE',  ( 0.0000000000000000000, 0.0000000000000000000, 0.0000000000000000000 ) ) ;
#166 = LINE ( 'NONE', #225, #317 ) ;
#167 = CARTESIAN_POINT ( 'NONE',  ( 0.0000000000000000000, 0.0000000000000000000, 15.00000000000000000 ) ) ;
#168 = FACE_OUTER_BOUND ( 'NONE', #273, .T. ) ;
#169 = ADVANCED_FACE ( 'NONE', ( #210 ), #201, .F. ) ;
#170 = ORIENTED_EDGE ( 'NONE', *, *, #255, .T. ) ;
#171 = EDGE_LOOP ( 'NONE', ( #313, #272, #216, #188 ) ) ;
#172 = EDGE_CURVE ( 'NONE', #217, #319, #293, .T. ) ;
#173 = APPROVAL_ROLE ( '' ) ;
#174 = LINE ( 'NONE', #93, #192 ) ;
#175 = LOCAL_TIME ( 12, 28, 2.000000000000000000, #233 ) ;
#176 = ORIENTED_EDGE ( 'NONE', *, *, #177, .F. ) ;
#177 = EDGE_CURVE ( 'NONE', #109, #164, #152, .T. ) ;
#178 = EDGE_LOOP ( 'NONE', ( #310, #176, #60 ) ) ;
#179 = VERTEX_POINT ( 'NONE', #227 ) ;
#180 = DIRECTION ( 'NONE',  ( 1.000000000000000000, 0.0000000000000000000, 0.0000000000000000000 ) ) ;
#181 = EDGE_CURVE ( 'NONE', #276, #135, #91, .T. ) ;
#182 = APPROVAL_STATUS ( 'not_yet_approved' ) ;
#183 = VERTEX_POINT ( 'NONE', #246 ) ;
#184 = CALENDAR_DATE ( 2014, 5, 6 ) ;
#185 = VECTOR ( 'NONE', #257, 1000.000000000000100 ) ;
#186 = APPROVAL ( #182, 'UNSPECIFIED' ) ;
#187 = CC_DESIGN_DATE_AND_TIME_ASSIGNMENT ( #72, #205, ( #88 ) ) ;
#188 = ORIENTED_EDGE ( 'NONE', *, *, #161, .T. ) ;
#189 = ADVANCED_FACE ( 'NONE', ( #300 ), #296, .T. ) ;
#190 = CC_DESIGN_PERSON_AND_ORGANIZATION_ASSIGNMENT ( #131, #7, ( #138 ) ) ;
#191 = APPROVAL_ROLE ( '' ) ;
#192 = VECTOR ( 'NONE', #298, 1000.000000000000000 ) ;
#193 = DIRECTION ( 'NONE',  ( 1.000000000000000000, -4.419121949999724100E-017, -0.0000000000000000000 ) ) ;
#194 = APPROVAL_DATE_TIME ( #155, #137 ) ;
#195 = EDGE_CURVE ( 'NONE', #77, #183, #256, .T. ) ;
#196 = FACE_OUTER_BOUND ( 'NONE', #108, .T. ) ;
#197 = VECTOR ( 'NONE', #127, 1000.000000000000000 ) ;
#198 = CARTESIAN_POINT ( 'NONE',  ( 15.00000000000000000, 15.00000000000000000, 15.00000000000000000 ) ) ;
#199 = VECTOR ( 'NONE', #236, 1000.000000000000000 ) ;
#200 = LINE ( 'NONE', #40, #197 ) ;
#201 = PLANE ( 'NONE',  #46 ) ;
#202 = AXIS2_PLACEMENT_3D ( 'NONE', #277, #264, #218 ) ;
#203 = CC_DESIGN_APPROVAL ( #270, ( #243 ) ) ;
#204 = PERSON_AND_ORGANIZATION ( #123, #288 ) ;
#205 = DATE_TIME_ROLE ( 'creation_date' ) ;
#206 = VECTOR ( 'NONE', #146, 1000.000000000000100 ) ;
#207 =( NAMED_UNIT ( * ) PLANE_ANGLE_UNIT ( ) SI_UNIT ( $, .RADIAN. ) );
#208 = PLANE ( 'NONE',  #102 ) ;
#209 = VERTEX_POINT ( 'NONE', #230 ) ;
#210 = FACE_OUTER_BOUND ( 'NONE', #171, .T. ) ;
#211 = EDGE_CURVE ( 'NONE', #164, #135, #200, .T. ) ;
#212 = CARTESIAN_POINT ( 'NONE',  ( 15.00000000000000000, -6.628682924999585600E-016, 0.0000000000000000000 ) ) ;
#213 = LINE ( 'NONE', #18, #258 ) ;
#214 = FACE_OUTER_BOUND ( 'NONE', #178, .T. ) ;
#215 = AXIS2_PLACEMENT_3D ( 'NONE', #160, #312, #11 ) ;
#216 = ORIENTED_EDGE ( 'NONE', *, *, #101, .F. ) ;
#217 = VERTEX_POINT ( 'NONE', #241 ) ;
#218 = DIRECTION ( 'NONE',  ( 1.000000000000000000, 0.0000000000000000000, -0.0000000000000000000 ) ) ;
#219 = VERTEX_POINT ( 'NONE', #84 ) ;
#220 = SECURITY_CLASSIFICATION_LEVEL ( 'unclassified' ) ;
#221 = APPLICATION_CONTEXT ( 'configuration controlled 3d designs of mechanical parts and assemblies' ) ;
#222 = CC_DESIGN_PERSON_AND_ORGANIZATION_ASSIGNMENT ( #100, #304, ( #243 ) ) ;
#223 = EDGE_CURVE ( 'NONE', #209, #217, #295, .T. ) ;
#224 = ORIENTED_EDGE ( 'NONE', *, *, #255, .F. ) ;
#225 = CARTESIAN_POINT ( 'NONE',  ( 15.00000000000000000, 15.00000000000000000, 15.00000000000000000 ) ) ;
#226 = DIRECTION ( 'NONE',  ( 0.0000000000000000000, 0.0000000000000000000, -1.000000000000000000 ) ) ;
#227 = CARTESIAN_POINT ( 'NONE',  ( 0.0000000000000000000, 0.0000000000000000000, 15.00000000000000000 ) ) ;
#228 = EDGE_LOOP ( 'NONE', ( #21, #143, #14, #54 ) ) ;
#229 = ORIENTED_EDGE ( 'NONE', *, *, #101, .T. ) ;
#230 = CARTESIAN_POINT ( 'NONE',  ( 0.0000000000000000000, 0.0000000000000000000, 15.00000000000000000 ) ) ;
#231 = EDGE_LOOP ( 'NONE', ( #159, #61, #19, #35 ) ) ;
#232 = UNCERTAINTY_MEASURE_WITH_UNIT (LENGTH_MEASURE( 1.000000000000000100E-005 ), #5, 'distance_accuracy_value', 'NONE');
#233 = COORDINATED_UNIVERSAL_TIME_OFFSET ( 7, 0, .BEHIND. ) ;
#234 = VERTEX_POINT ( 'NONE', #315 ) ;
#235 = LINE ( 'NONE', #42, #253 ) ;
#236 = DIRECTION ( 'NONE',  ( -0.0000000000000000000, -0.0000000000000000000, -1.000000000000000000 ) ) ;
#237 = EDGE_CURVE ( 'NONE', #135, #109, #284, .T. ) ;
#238 = CARTESIAN_POINT ( 'NONE',  ( 15.00000000000000000, -6.628682924999585600E-016, 15.00000000000000000 ) ) ;
#239 = ORIENTED_EDGE ( 'NONE', *, *, #237, .T. ) ;
#240 = PRODUCT_RELATED_PRODUCT_CATEGORY ( 'detail', '', ( #145 ) ) ;
#241 = CARTESIAN_POINT ( 'NONE',  ( 15.00000000000000000, 15.00000000000000000, 15.00000000000000000 ) ) ;
#242 = ADVANCED_FACE ( 'NONE', ( #2 ), #133, .F. ) ;
#243 = PRODUCT_DEFINITION_FORMATION_WITH_SPECIFIED_SOURCE ( 'ANY', '', #145, .NOT_KNOWN. ) ;
#244 = ORIENTED_EDGE ( 'NONE', *, *, #181, .T. ) ;
#245 = ORIENTED_EDGE ( 'NONE', *, *, #195, .F. ) ;
#246 = CARTESIAN_POINT ( 'NONE',  ( 0.0000000000000000000, 0.0000000000000000000, 0.0000000000000000000 ) ) ;
#247 = DIRECTION ( 'NONE',  ( 0.0000000000000000000, 0.0000000000000000000, -1.000000000000000000 ) ) ;
#248 = MECHANICAL_CONTEXT ( 'NONE', #306, 'mechanical' ) ;
#249 = DIRECTION ( 'NONE',  ( 0.7071067811865475700, -0.7071067811865475700, 0.0000000000000000000 ) ) ;
#250 = PERSON_AND_ORGANIZATION ( #123, #288 ) ;
#251 = DIRECTION ( 'NONE',  ( -0.7071067811865474600, -0.7071067811865474600, 0.0000000000000000000 ) ) ;
#252 = PERSON_AND_ORGANIZATION ( #123, #288 ) ;
#253 = VECTOR ( 'NONE', #106, 1000.000000000000000 ) ;
#254 = CARTESIAN_POINT ( 'NONE',  ( 15.00000000000000000, -6.628682924999585600E-016, 15.00000000000000000 ) ) ;
#255 = EDGE_CURVE ( 'NONE', #276, #234, #166, .T. ) ;
#256 = LINE ( 'NONE', #76, #318 ) ;
#257 = DIRECTION ( 'NONE',  ( 0.7071067811865474600, 0.7071067811865474600, -0.0000000000000000000 ) ) ;
#258 = VECTOR ( 'NONE', #271, 1000.000000000000000 ) ;
#259 = FACE_OUTER_BOUND ( 'NONE', #231, .T. ) ;
#260 = ADVANCED_FACE ( 'NONE', ( #292 ), #279, .F. ) ;
#261 = PERSON_AND_ORGANIZATION ( #123, #288 ) ;
#262 = VECTOR ( 'NONE', #112, 1000.000000000000000 ) ;
#263 = APPROVAL_PERSON_ORGANIZATION ( #252, #186, #173 ) ;
#264 = DIRECTION ( 'NONE',  ( 0.0000000000000000000, 0.0000000000000000000, 1.000000000000000000 ) ) ;
#265 = DIRECTION ( 'NONE',  ( -0.7071067811865474600, -0.7071067811865474600, -0.0000000000000000000 ) ) ;
#266 = ORIENTED_EDGE ( 'NONE', *, *, #52, .T. ) ;
#267 = CARTESIAN_POINT ( 'NONE',  ( 0.0000000000000000000, 0.0000000000000000000, 0.0000000000000000000 ) ) ;
#268 = LOCAL_TIME ( 12, 28, 2.000000000000000000, #96 ) ;
#269 = FACE_OUTER_BOUND ( 'NONE', #59, .T. ) ;
#270 = APPROVAL ( #89, 'UNSPECIFIED' ) ;
#271 = DIRECTION ( 'NONE',  ( -1.000000000000000000, -0.0000000000000000000, -0.0000000000000000000 ) ) ;
#272 = ORIENTED_EDGE ( 'NONE', *, *, #56, .F. ) ;
#273 = EDGE_LOOP ( 'NONE', ( #274, #95, #147, #301 ) ) ;
#274 = ORIENTED_EDGE ( 'NONE', *, *, #122, .T. ) ;
#275 = CARTESIAN_POINT ( 'NONE',  ( 0.0000000000000000000, 0.0000000000000000000, 15.00000000000000000 ) ) ;
#276 = VERTEX_POINT ( 'NONE', #254 ) ;
#277 = CARTESIAN_POINT ( 'NONE',  ( 0.0000000000000000000, 0.0000000000000000000, 15.00000000000000000 ) ) ;
#278 = DATE_TIME_ROLE ( 'classification_date' ) ;
#279 = PLANE ( 'NONE',  #130 ) ;
#280 = DIRECTION ( 'NONE',  ( 0.0000000000000000000, 0.0000000000000000000, 1.000000000000000000 ) ) ;
#281 = VECTOR ( 'NONE', #153, 1000.000000000000000 ) ;
#282 = EDGE_LOOP ( 'NONE', ( #104, #170, #229 ) ) ;
#283 = PLANE ( 'NONE',  #299 ) ;
#284 = LINE ( 'NONE', #50, #20 ) ;
#285 = CALENDAR_DATE ( 2014, 5, 6 ) ;
#286 = CARTESIAN_POINT ( 'NONE',  ( 0.0000000000000000000, 0.0000000000000000000, 0.0000000000000000000 ) ) ;
#287 = ADVANCED_FACE ( 'NONE', ( #196 ), #283, .T. ) ;
#288 = ORGANIZATION ( 'UNSPECIFIED', 'UNSPECIFIED', '' ) ;
#289 = EDGE_CURVE ( 'NONE', #183, #319, #113, .T. ) ;
#290 = EDGE_CURVE ( 'NONE', #217, #219, #174, .T. ) ;
#291 = ORIENTED_EDGE ( 'NONE', *, *, #223, .T. ) ;
#292 = FACE_OUTER_BOUND ( 'NONE', #116, .T. ) ;
#293 = LINE ( 'NONE', #85, #4 ) ;
#294 = PLANE ( 'NONE',  #316 ) ;
#295 = LINE ( 'NONE', #198, #185 ) ;
#296 = PLANE ( 'NONE',  #202 ) ;
#297 = ORIENTED_EDGE ( 'NONE', *, *, #161, .F. ) ;
#298 = DIRECTION ( 'NONE',  ( -1.000000000000000000, -0.0000000000000000000, -0.0000000000000000000 ) ) ;
#299 = AXIS2_PLACEMENT_3D ( 'NONE', #267, #247, #79 ) ;
#300 = FACE_OUTER_BOUND ( 'NONE', #282, .T. ) ;
#301 = ORIENTED_EDGE ( 'NONE', *, *, #172, .T. ) ;
#302 = CC_DESIGN_APPROVAL ( #137, ( #138 ) ) ;
#303 = DIRECTION ( 'NONE',  ( -0.0000000000000000000, -0.0000000000000000000, -1.000000000000000000 ) ) ;
#304 = PERSON_AND_ORGANIZATION_ROLE ( 'creator' ) ;
#305 = LINE ( 'NONE', #321, #281 ) ;
#306 = APPLICATION_CONTEXT ( 'configuration controlled 3d designs of mechanical parts and assemblies' ) ;
#307 = ADVANCED_FACE ( 'NONE', ( #134 ), #132, .F. ) ;
#308 = CARTESIAN_POINT ( 'NONE',  ( 0.0000000000000000000, 15.00000000000000000, 15.00000000000000000 ) ) ;
#309 = LINE ( 'NONE', #311, #17 ) ;
#310 = ORIENTED_EDGE ( 'NONE', *, *, #211, .F. ) ;
#311 = CARTESIAN_POINT ( 'NONE',  ( 0.0000000000000000000, 0.0000000000000000000, 15.00000000000000000 ) ) ;
#312 = DIRECTION ( 'NONE',  ( 4.419121949999724100E-017, 1.000000000000000000, -0.0000000000000000000 ) ) ;
#313 = ORIENTED_EDGE ( 'NONE', *, *, #177, .T. ) ;
#314 = CARTESIAN_POINT ( 'NONE',  ( 0.0000000000000000000, 0.0000000000000000000, 15.00000000000000000 ) ) ;
#315 = CARTESIAN_POINT ( 'NONE',  ( 15.00000000000000000, 15.00000000000000000, 15.00000000000000000 ) ) ;
#316 = AXIS2_PLACEMENT_3D ( 'NONE', #16, #141, #36 ) ;
#317 = VECTOR ( 'NONE', #63, 1000.000000000000000 ) ;
#318 = VECTOR ( 'NONE', #48, 1000.000000000000000 ) ;
#319 = VERTEX_POINT ( 'NONE', #107 ) ;
#320 = DIRECTION ( 'NONE',  ( -0.7071067811865474600, -0.7071067811865474600, -0.0000000000000000000 ) ) ;
#321 = CARTESIAN_POINT ( 'NONE',  ( 0.0000000000000000000, 0.0000000000000000000, 15.00000000000000000 ) ) ;
ENDSEC;
END-ISO-10303-21;
