ISO-10303-21;
HEADER;
FILE_DESCRIPTION (( 'STEP AP203' ),
    '1' );
FILE_NAME ('Web Model 48919_15997.step',
    '2020-10-21T18:32:37',
    ( '' ),
    ( '' ),
    'SwSTEP 2.0',
    'SolidWorks 2018',
    '' );
FILE_SCHEMA (( 'CONFIG_CONTROL_DESIGN' ));
ENDSEC;

DATA;
#1 = ADVANCED_FACE ( 'NONE', ( #169 ), #3, .T. ) ;
#2 = EDGE_CURVE ( 'NONE', #80, #161, #76, .T. ) ;
#3 = PLANE ( 'NONE',  #108 ) ;
#4 = CALENDAR_DATE ( 2020, 21, 10 ) ;
#5 = DIRECTION ( 'NONE',  ( 1.000000000000000000, 0.0000000000000000000, -0.0000000000000000000 ) ) ;
#6 = ORIENTED_EDGE ( 'NONE', *, *, #67, .F. ) ;
#7 = UNCERTAINTY_MEASURE_WITH_UNIT (LENGTH_MEASURE( 1.000000000000000082E-05 ), #118, 'distance_accuracy_value', 'NONE');
#8 = CARTESIAN_POINT ( 'NONE',  ( 15.00000000000000000, 1.836970198721029589E-15, 1.000000000000000000 ) ) ;
#9 = CARTESIAN_POINT ( 'NONE',  ( 0.0000000000000000000, 0.0000000000000000000, 0.0000000000000000000 ) ) ;
#10 = PERSON_AND_ORGANIZATION_ROLE ( 'creator' ) ;
#11 = EDGE_CURVE ( 'NONE', #161, #80, #47, .T. ) ;
#12 = LINE ( 'NONE', #8, #139 ) ;
#13 = DATE_AND_TIME ( #129, #49 ) ;
#14 = APPROVAL_STATUS ( 'not_yet_approved' ) ;
#15 = PERSON_AND_ORGANIZATION ( #29, #121 ) ;
#16 = APPLICATION_PROTOCOL_DEFINITION ( 'international standard', 'config_control_design', 1994, #60 ) ;
#17 = MECHANICAL_CONTEXT ( 'NONE', #155, 'mechanical' ) ;
#18 = PRODUCT_DEFINITION ( 'UNKNOWN', '', #90, #159 ) ;
#19 = ORIENTED_EDGE ( 'NONE', *, *, #63, .T. ) ;
#20 = AXIS2_PLACEMENT_3D ( 'NONE', #109, #33, #111 ) ;
#21 = CC_DESIGN_DATE_AND_TIME_ASSIGNMENT ( #153, #41, ( #18 ) ) ;
#22 = CARTESIAN_POINT ( 'NONE',  ( 0.0000000000000000000, 0.0000000000000000000, 1.000000000000000000 ) ) ;
#23 = CARTESIAN_POINT ( 'NONE',  ( -15.00000000000000000, 0.0000000000000000000, 0.0000000000000000000 ) ) ;
#24 = ORIENTED_EDGE ( 'NONE', *, *, #81, .T. ) ;
#25 = APPROVAL_PERSON_ORGANIZATION ( #115, #131, #34 ) ;
#26 = AXIS2_PLACEMENT_3D ( 'NONE', #79, #69, #83 ) ;
#27 = CALENDAR_DATE ( 2020, 21, 10 ) ;
#28 = CARTESIAN_POINT ( 'NONE',  ( 0.0000000000000000000, 0.0000000000000000000, 0.0000000000000000000 ) ) ;
#29 = PERSON ( 'UNSPECIFIED', 'UNSPECIFIED', 'UNSPECIFIED', ('UNSPECIFIED'), ('UNSPECIFIED'), ('UNSPECIFIED') ) ;
#30 = DIRECTION ( 'NONE',  ( 0.0000000000000000000, 0.0000000000000000000, 1.000000000000000000 ) ) ;
#31 = COORDINATED_UNIVERSAL_TIME_OFFSET ( 5, 0, .BEHIND. ) ;
#32 = DIRECTION ( 'NONE',  ( -0.0000000000000000000, -0.0000000000000000000, -1.000000000000000000 ) ) ;
#33 = DIRECTION ( 'NONE',  ( 0.0000000000000000000, 0.0000000000000000000, 1.000000000000000000 ) ) ;
#34 = APPROVAL_ROLE ( '' ) ;
#35 = EDGE_LOOP ( 'NONE', ( #59, #150, #24, #56 ) ) ;
#36 = MANIFOLD_SOLID_BREP ( 'Boss-Extrude1', #54 ) ;
#37 = ADVANCED_FACE ( 'NONE', ( #113 ), #46, .F. ) ;
#38 = DIRECTION ( 'NONE',  ( 1.000000000000000000, 0.0000000000000000000, 0.0000000000000000000 ) ) ;
#39 = APPROVAL_PERSON_ORGANIZATION ( #15, #53, #97 ) ;
#40 = LOCAL_TIME ( 14, 32, 37.00000000000000000, #102 ) ;
#41 = DATE_TIME_ROLE ( 'creation_date' ) ;
#42 = AXIS2_PLACEMENT_3D ( 'NONE', #28, #171, #5 ) ;
#43 = COORDINATED_UNIVERSAL_TIME_OFFSET ( 5, 0, .BEHIND. ) ;
#44 = CARTESIAN_POINT ( 'NONE',  ( 0.0000000000000000000, 0.0000000000000000000, 1.000000000000000000 ) ) ;
#45 = SECURITY_CLASSIFICATION ( '', '', #156 ) ;
#46 = PLANE ( 'NONE',  #42 ) ;
#47 = CIRCLE ( 'NONE', #26, 15.00000000000000000 ) ;
#48 = CC_DESIGN_PERSON_AND_ORGANIZATION_ASSIGNMENT ( #125, #52, ( #45 ) ) ;
#49 = LOCAL_TIME ( 14, 32, 37.00000000000000000, #43 ) ;
#50 = CC_DESIGN_APPROVAL ( #131, ( #90 ) ) ;
#51 = FACE_OUTER_BOUND ( 'NONE', #35, .T. ) ;
#52 = PERSON_AND_ORGANIZATION_ROLE ( 'classification_officer' ) ;
#53 = APPROVAL ( #123, 'UNSPECIFIED' ) ;
#54 = CLOSED_SHELL ( 'NONE', ( #144, #116, #1, #37 ) ) ;
#55 = PRODUCT_RELATED_PRODUCT_CATEGORY ( 'detail', '', ( #73 ) ) ;
#56 = ORIENTED_EDGE ( 'NONE', *, *, #164, .T. ) ;
#57 = APPROVAL_DATE_TIME ( #143, #53 ) ;
#58 = DIRECTION ( 'NONE',  ( -0.0000000000000000000, -0.0000000000000000000, -1.000000000000000000 ) ) ;
#59 = ORIENTED_EDGE ( 'NONE', *, *, #63, .F. ) ;
#60 = APPLICATION_CONTEXT ( 'configuration controlled 3d designs of mechanical parts and assemblies' ) ;
#61 = FACE_OUTER_BOUND ( 'NONE', #117, .T. ) ;
#62 = PERSON_AND_ORGANIZATION_ROLE ( 'design_supplier' ) ;
#63 = EDGE_CURVE ( 'NONE', #161, #107, #12, .T. ) ;
#64 = DATE_AND_TIME ( #114, #40 ) ;
#65 = DIRECTION ( 'NONE',  ( 1.000000000000000000, 0.0000000000000000000, -0.0000000000000000000 ) ) ;
#66 = EDGE_LOOP ( 'NONE', ( #88, #89 ) ) ;
#67 = EDGE_CURVE ( 'NONE', #107, #93, #128, .T. ) ;
#68 = DIRECTION ( 'NONE',  ( 0.0000000000000000000, 0.0000000000000000000, 1.000000000000000000 ) ) ;
#69 = DIRECTION ( 'NONE',  ( 0.0000000000000000000, 0.0000000000000000000, 1.000000000000000000 ) ) ;
#70 = CARTESIAN_POINT ( 'NONE',  ( 0.0000000000000000000, 0.0000000000000000000, 1.000000000000000000 ) ) ;
#71 = DATE_AND_TIME ( #27, #94 ) ;
#72 = PERSON_AND_ORGANIZATION_ROLE ( 'design_owner' ) ;
#73 = PRODUCT ( 'Web Model 48919_15997', 'Web Model 48919_15997', '', ( #17 ) ) ;
#74 = COORDINATED_UNIVERSAL_TIME_OFFSET ( 5, 0, .BEHIND. ) ;
#75 = APPROVAL_PERSON_ORGANIZATION ( #136, #104, #142 ) ;
#76 = CIRCLE ( 'NONE', #162, 15.00000000000000000 ) ;
#77 = PERSON_AND_ORGANIZATION ( #29, #121 ) ;
#78 = LOCAL_TIME ( 14, 32, 37.00000000000000000, #31 ) ;
#79 = CARTESIAN_POINT ( 'NONE',  ( 0.0000000000000000000, 0.0000000000000000000, 1.000000000000000000 ) ) ;
#80 = VERTEX_POINT ( 'NONE', #85 ) ;
#81 = EDGE_CURVE ( 'NONE', #80, #93, #124, .T. ) ;
#82 = DIRECTION ( 'NONE',  ( 0.0000000000000000000, 0.0000000000000000000, 1.000000000000000000 ) ) ;
#83 = DIRECTION ( 'NONE',  ( 1.000000000000000000, 0.0000000000000000000, 0.0000000000000000000 ) ) ;
#84 = CARTESIAN_POINT ( 'NONE',  ( 15.00000000000000000, 1.836970198721029589E-15, 1.000000000000000000 ) ) ;
#85 = CARTESIAN_POINT ( 'NONE',  ( -15.00000000000000000, 0.0000000000000000000, 1.000000000000000000 ) ) ;
#86 = CC_DESIGN_APPROVAL ( #104, ( #18 ) ) ;
#87 = DATE_TIME_ROLE ( 'classification_date' ) ;
#88 = ORIENTED_EDGE ( 'NONE', *, *, #2, .T. ) ;
#89 = ORIENTED_EDGE ( 'NONE', *, *, #11, .T. ) ;
#90 = PRODUCT_DEFINITION_FORMATION_WITH_SPECIFIED_SOURCE ( 'ANY', '', #73, .NOT_KNOWN. ) ;
#91 = LOCAL_TIME ( 14, 32, 37.00000000000000000, #135 ) ;
#92 = CARTESIAN_POINT ( 'NONE',  ( 0.0000000000000000000, 0.0000000000000000000, 1.000000000000000000 ) ) ;
#93 = VERTEX_POINT ( 'NONE', #23 ) ;
#94 = LOCAL_TIME ( 14, 32, 37.00000000000000000, #74 ) ;
#95 =( NAMED_UNIT ( * ) SI_UNIT ( $, .STERADIAN. ) SOLID_ANGLE_UNIT ( ) );
#96 = DIRECTION ( 'NONE',  ( -1.000000000000000000, 0.0000000000000000000, 0.0000000000000000000 ) ) ;
#97 = APPROVAL_ROLE ( '' ) ;
#98 = CC_DESIGN_SECURITY_CLASSIFICATION ( #45, ( #90 ) ) ;
#99 = EDGE_LOOP ( 'NONE', ( #173, #6 ) ) ;
#100 = CIRCLE ( 'NONE', #20, 15.00000000000000000 ) ;
#101 = APPROVAL_STATUS ( 'not_yet_approved' ) ;
#102 = COORDINATED_UNIVERSAL_TIME_OFFSET ( 5, 0, .BEHIND. ) ;
#103 = CC_DESIGN_PERSON_AND_ORGANIZATION_ASSIGNMENT ( #77, #138, ( #18 ) ) ;
#104 = APPROVAL ( #14, 'UNSPECIFIED' ) ;
#105 = CALENDAR_DATE ( 2020, 21, 10 ) ;
#106 = DIRECTION ( 'NONE',  ( 1.000000000000000000, 0.0000000000000000000, 0.0000000000000000000 ) ) ;
#107 = VERTEX_POINT ( 'NONE', #168 ) ;
#108 = AXIS2_PLACEMENT_3D ( 'NONE', #22, #147, #65 ) ;
#109 = CARTESIAN_POINT ( 'NONE',  ( 0.0000000000000000000, 0.0000000000000000000, 0.0000000000000000000 ) ) ;
#110 = PERSON_AND_ORGANIZATION ( #29, #121 ) ;
#111 = DIRECTION ( 'NONE',  ( 1.000000000000000000, 0.0000000000000000000, 0.0000000000000000000 ) ) ;
#112 = CC_DESIGN_PERSON_AND_ORGANIZATION_ASSIGNMENT ( #110, #10, ( #90 ) ) ;
#113 = FACE_OUTER_BOUND ( 'NONE', #99, .T. ) ;
#114 = CALENDAR_DATE ( 2020, 21, 10 ) ;
#115 = PERSON_AND_ORGANIZATION ( #29, #121 ) ;
#116 = ADVANCED_FACE ( 'NONE', ( #51 ), #148, .T. ) ;
#117 = EDGE_LOOP ( 'NONE', ( #127, #19, #157, #166 ) ) ;
#118 =( LENGTH_UNIT ( ) NAMED_UNIT ( * ) SI_UNIT ( .MILLI., .METRE. ) );
#119 = ADVANCED_BREP_SHAPE_REPRESENTATION ( 'Web Model 48919_15997', ( #36, #149 ), #158 ) ;
#120 = VECTOR ( 'NONE', #122, 1000.000000000000000 ) ;
#121 = ORGANIZATION ( 'UNSPECIFIED', 'UNSPECIFIED', '' ) ;
#122 = DIRECTION ( 'NONE',  ( -0.0000000000000000000, -0.0000000000000000000, -1.000000000000000000 ) ) ;
#123 = APPROVAL_STATUS ( 'not_yet_approved' ) ;
#124 = LINE ( 'NONE', #172, #120 ) ;
#125 = PERSON_AND_ORGANIZATION ( #29, #121 ) ;
#126 = PRODUCT_DEFINITION_SHAPE ( 'NONE', 'NONE',  #18 ) ;
#127 = ORIENTED_EDGE ( 'NONE', *, *, #11, .F. ) ;
#128 = CIRCLE ( 'NONE', #154, 15.00000000000000000 ) ;
#129 = CALENDAR_DATE ( 2020, 21, 10 ) ;
#130 = AXIS2_PLACEMENT_3D ( 'NONE', #70, #32, #96 ) ;
#131 = APPROVAL ( #101, 'UNSPECIFIED' ) ;
#132 = DIRECTION ( 'NONE',  ( -1.000000000000000000, 0.0000000000000000000, 0.0000000000000000000 ) ) ;
#133 =( NAMED_UNIT ( * ) PLANE_ANGLE_UNIT ( ) SI_UNIT ( $, .RADIAN. ) );
#134 = DIRECTION ( 'NONE',  ( -0.0000000000000000000, -0.0000000000000000000, -1.000000000000000000 ) ) ;
#135 = COORDINATED_UNIVERSAL_TIME_OFFSET ( 5, 0, .BEHIND. ) ;
#136 = PERSON_AND_ORGANIZATION ( #29, #121 ) ;
#137 = APPLICATION_PROTOCOL_DEFINITION ( 'international standard', 'config_control_design', 1994, #155 ) ;
#138 = PERSON_AND_ORGANIZATION_ROLE ( 'creator' ) ;
#139 = VECTOR ( 'NONE', #134, 1000.000000000000000 ) ;
#140 = CC_DESIGN_DATE_AND_TIME_ASSIGNMENT ( #71, #87, ( #45 ) ) ;
#141 = APPROVAL_DATE_TIME ( #64, #104 ) ;
#142 = APPROVAL_ROLE ( '' ) ;
#143 = DATE_AND_TIME ( #105, #91 ) ;
#144 = ADVANCED_FACE ( 'NONE', ( #61 ), #160, .T. ) ;
#145 = CC_DESIGN_APPROVAL ( #53, ( #45 ) ) ;
#146 = APPROVAL_DATE_TIME ( #13, #131 ) ;
#147 = DIRECTION ( 'NONE',  ( 0.0000000000000000000, 0.0000000000000000000, 1.000000000000000000 ) ) ;
#148 = CYLINDRICAL_SURFACE ( 'NONE', #130, 15.00000000000000000 ) ;
#149 = AXIS2_PLACEMENT_3D ( 'NONE', #151, #30, #38 ) ;
#150 = ORIENTED_EDGE ( 'NONE', *, *, #2, .F. ) ;
#151 = CARTESIAN_POINT ( 'NONE',  ( 0.0000000000000000000, 0.0000000000000000000, 0.0000000000000000000 ) ) ;
#152 = PERSON_AND_ORGANIZATION ( #29, #121 ) ;
#153 = DATE_AND_TIME ( #4, #78 ) ;
#154 = AXIS2_PLACEMENT_3D ( 'NONE', #9, #82, #170 ) ;
#155 = APPLICATION_CONTEXT ( 'configuration controlled 3d designs of mechanical parts and assemblies' ) ;
#156 = SECURITY_CLASSIFICATION_LEVEL ( 'unclassified' ) ;
#157 = ORIENTED_EDGE ( 'NONE', *, *, #67, .T. ) ;
#158 =( GEOMETRIC_REPRESENTATION_CONTEXT ( 3 ) GLOBAL_UNCERTAINTY_ASSIGNED_CONTEXT ( ( #7 ) ) GLOBAL_UNIT_ASSIGNED_CONTEXT ( ( #118, #133, #95 ) ) REPRESENTATION_CONTEXT ( 'NONE', 'WORKASPACE' ) );
#159 = DESIGN_CONTEXT ( 'detailed design', #60, 'design' ) ;
#160 = CYLINDRICAL_SURFACE ( 'NONE', #165, 15.00000000000000000 ) ;
#161 = VERTEX_POINT ( 'NONE', #84 ) ;
#162 = AXIS2_PLACEMENT_3D ( 'NONE', #44, #68, #106 ) ;
#163 = SHAPE_DEFINITION_REPRESENTATION ( #126, #119 ) ;
#164 = EDGE_CURVE ( 'NONE', #93, #107, #100, .T. ) ;
#165 = AXIS2_PLACEMENT_3D ( 'NONE', #92, #58, #132 ) ;
#166 = ORIENTED_EDGE ( 'NONE', *, *, #81, .F. ) ;
#167 = CC_DESIGN_PERSON_AND_ORGANIZATION_ASSIGNMENT ( #174, #62, ( #90 ) ) ;
#168 = CARTESIAN_POINT ( 'NONE',  ( 15.00000000000000000, 1.836970198721029589E-15, 0.0000000000000000000 ) ) ;
#169 = FACE_OUTER_BOUND ( 'NONE', #66, .T. ) ;
#170 = DIRECTION ( 'NONE',  ( 1.000000000000000000, 0.0000000000000000000, 0.0000000000000000000 ) ) ;
#171 = DIRECTION ( 'NONE',  ( 0.0000000000000000000, 0.0000000000000000000, 1.000000000000000000 ) ) ;
#172 = CARTESIAN_POINT ( 'NONE',  ( -15.00000000000000000, 0.0000000000000000000, 1.000000000000000000 ) ) ;
#173 = ORIENTED_EDGE ( 'NONE', *, *, #164, .F. ) ;
#174 = PERSON_AND_ORGANIZATION ( #29, #121 ) ;
#175 = CC_DESIGN_PERSON_AND_ORGANIZATION_ASSIGNMENT ( #152, #72, ( #73 ) ) ;
ENDSEC;
END-ISO-10303-21;
