ISO-10303-21;
HEADER;
FILE_DESCRIPTION (( 'STEP AP203' ),
    '1' );
FILE_NAME ('Web Model 37128MX_37134.step',
    '2018-05-08T16:12:26',
    ( '' ),
    ( '' ),
    'SwSTEP 2.0',
    'SolidWorks 2016',
    '' );
FILE_SCHEMA (( 'CONFIG_CONTROL_DESIGN' ));
ENDSEC;

DATA;
#1 = CC_DESIGN_PERSON_AND_ORGANIZATION_ASSIGNMENT ( #185, #139, ( #144 ) ) ;
#2 = AXIS2_PLACEMENT_3D ( 'NONE', #88, #56, #203 ) ;
#3 = CALENDAR_DATE ( 2018, 8, 5 ) ;
#4 = CARTESIAN_POINT ( 'NONE',  ( 12.50000000000000500, -12.50000000000000200, 3.000000000000000000 ) ) ;
#5 = CARTESIAN_POINT ( 'NONE',  ( -12.49999999999999500, 12.49999999999999500, -3.000000000000000000 ) ) ;
#6 = LINE ( 'NONE', #74, #218 ) ;
#7 = PLANE ( 'NONE',  #149 ) ;
#8 = CC_DESIGN_APPROVAL ( #95, ( #190 ) ) ;
#9 = CARTESIAN_POINT ( 'NONE',  ( -12.49999999999999500, -12.50000000000000500, 3.000000000000000000 ) ) ;
#10 = DIRECTION ( 'NONE',  ( 0.0000000000000000000, 1.000000000000000000, 0.0000000000000000000 ) ) ;
#11 = VECTOR ( 'NONE', #209, 1000.000000000000000 ) ;
#12 = DIRECTION ( 'NONE',  ( 0.0000000000000000000, -0.0000000000000000000, 1.000000000000000000 ) ) ;
#13 = CC_DESIGN_SECURITY_CLASSIFICATION ( #144, ( #84 ) ) ;
#14 = VERTEX_POINT ( 'NONE', #217 ) ;
#15 = PERSON_AND_ORGANIZATION_ROLE ( 'creator' ) ;
#16 = PERSON_AND_ORGANIZATION_ROLE ( 'creator' ) ;
#17 = ADVANCED_FACE ( 'NONE', ( #166 ), #52, .F. ) ;
#18 = EDGE_LOOP ( 'NONE', ( #58, #51, #159, #193 ) ) ;
#19 = ORIENTED_EDGE ( 'NONE', *, *, #71, .F. ) ;
#20 = CALENDAR_DATE ( 2018, 8, 5 ) ;
#21 = DIRECTION ( 'NONE',  ( 0.0000000000000000000, -0.0000000000000000000, 1.000000000000000000 ) ) ;
#22 = VECTOR ( 'NONE', #57, 1000.000000000000000 ) ;
#23 = APPROVAL_DATE_TIME ( #122, #95 ) ;
#24 = EDGE_LOOP ( 'NONE', ( #155, #73, #164, #49 ) ) ;
#25 = ORIENTED_EDGE ( 'NONE', *, *, #76, .F. ) ;
#26 = CARTESIAN_POINT ( 'NONE',  ( 0.0000000000000000000, 0.0000000000000000000, 3.000000000000000000 ) ) ;
#27 = PERSON_AND_ORGANIZATION ( #50, #178 ) ;
#28 = VERTEX_POINT ( 'NONE', #152 ) ;
#29 = DATE_TIME_ROLE ( 'creation_date' ) ;
#30 = APPLICATION_CONTEXT ( 'configuration controlled 3d designs of mechanical parts and assemblies' ) ;
#31 = PERSON_AND_ORGANIZATION ( #50, #178 ) ;
#32 = FACE_OUTER_BOUND ( 'NONE', #18, .T. ) ;
#33 = CC_DESIGN_DATE_AND_TIME_ASSIGNMENT ( #92, #29, ( #190 ) ) ;
#34 = ORIENTED_EDGE ( 'NONE', *, *, #37, .F. ) ;
#35 = DIRECTION ( 'NONE',  ( -1.000000000000000000, -1.387778780781445400E-016, 0.0000000000000000000 ) ) ;
#36 = VECTOR ( 'NONE', #135, 1000.000000000000000 ) ;
#37 = EDGE_CURVE ( 'NONE', #216, #83, #86, .T. ) ;
#38 = CARTESIAN_POINT ( 'NONE',  ( 0.0000000000000000000, 0.0000000000000000000, 0.0000000000000000000 ) ) ;
#39 = LINE ( 'NONE', #40, #11 ) ;
#40 = CARTESIAN_POINT ( 'NONE',  ( 12.50000000000000500, 12.49999999999999800, 3.000000000000000000 ) ) ;
#41 = EDGE_CURVE ( 'NONE', #83, #224, #100, .T. ) ;
#42 = MECHANICAL_CONTEXT ( 'NONE', #30, 'mechanical' ) ;
#43 = COORDINATED_UNIVERSAL_TIME_OFFSET ( 5, 0, .BEHIND. ) ;
#44 = LINE ( 'NONE', #204, #36 ) ;
#45 = CC_DESIGN_PERSON_AND_ORGANIZATION_ASSIGNMENT ( #215, #16, ( #84 ) ) ;
#46 = ADVANCED_FACE ( 'NONE', ( #227 ), #200, .F. ) ;
#47 = ADVANCED_FACE ( 'NONE', ( #93 ), #127, .F. ) ;
#48 = VECTOR ( 'NONE', #114, 1000.000000000000000 ) ;
#49 = ORIENTED_EDGE ( 'NONE', *, *, #130, .F. ) ;
#50 = PERSON ( 'UNSPECIFIED', 'UNSPECIFIED', 'UNSPECIFIED', ('UNSPECIFIED'), ('UNSPECIFIED'), ('UNSPECIFIED') ) ;
#51 = ORIENTED_EDGE ( 'NONE', *, *, #158, .F. ) ;
#52 = PLANE ( 'NONE',  #182 ) ;
#53 = LINE ( 'NONE', #107, #223 ) ;
#54 = DIRECTION ( 'NONE',  ( -0.0000000000000000000, -1.000000000000000000, -0.0000000000000000000 ) ) ;
#55 = AXIS2_PLACEMENT_3D ( 'NONE', #96, #171, #184 ) ;
#56 = DIRECTION ( 'NONE',  ( 1.387778780781445400E-016, -1.000000000000000000, 0.0000000000000000000 ) ) ;
#57 = DIRECTION ( 'NONE',  ( 0.0000000000000000000, 1.000000000000000000, 0.0000000000000000000 ) ) ;
#58 = ORIENTED_EDGE ( 'NONE', *, *, #136, .T. ) ;
#59 = APPROVAL ( #162, 'UNSPECIFIED' ) ;
#60 = ORIENTED_EDGE ( 'NONE', *, *, #117, .T. ) ;
#61 = VERTEX_POINT ( 'NONE', #225 ) ;
#62 = EDGE_CURVE ( 'NONE', #28, #207, #53, .T. ) ;
#63 = APPLICATION_PROTOCOL_DEFINITION ( 'international standard', 'config_control_design', 1994, #174 ) ;
#64 = COORDINATED_UNIVERSAL_TIME_OFFSET ( 5, 0, .BEHIND. ) ;
#65 = APPLICATION_PROTOCOL_DEFINITION ( 'international standard', 'config_control_design', 1994, #30 ) ;
#66 = LINE ( 'NONE', #131, #168 ) ;
#67 = APPROVAL_ROLE ( '' ) ;
#68 = EDGE_LOOP ( 'NONE', ( #231, #201, #141, #187 ) ) ;
#69 = CARTESIAN_POINT ( 'NONE',  ( 0.0000000000000000000, 0.0000000000000000000, -3.000000000000000000 ) ) ;
#70 = LOCAL_TIME ( 12, 12, 26.00000000000000000, #116 ) ;
#71 = EDGE_CURVE ( 'NONE', #14, #28, #154, .T. ) ;
#72 = DIRECTION ( 'NONE',  ( -0.0000000000000000000, -0.0000000000000000000, -1.000000000000000000 ) ) ;
#73 = ORIENTED_EDGE ( 'NONE', *, *, #126, .F. ) ;
#74 = CARTESIAN_POINT ( 'NONE',  ( 12.50000000000000500, 12.49999999999999800, -3.000000000000000000 ) ) ;
#75 = SHAPE_DEFINITION_REPRESENTATION ( #108, #89 ) ;
#76 = EDGE_CURVE ( 'NONE', #28, #199, #66, .T. ) ;
#77 = AXIS2_PLACEMENT_3D ( 'NONE', #38, #142, #232 ) ;
#78 = ORIENTED_EDGE ( 'NONE', *, *, #132, .T. ) ;
#79 = CLOSED_SHELL ( 'NONE', ( #47, #87, #106, #46, #121, #17 ) ) ;
#80 = APPROVAL_ROLE ( '' ) ;
#81 = PERSON_AND_ORGANIZATION ( #50, #178 ) ;
#82 = PRODUCT ( 'Web Model 37128MX_37134', 'Web Model 37128MX_37134', '', ( #42 ) ) ;
#83 = VERTEX_POINT ( 'NONE', #5 ) ;
#84 = PRODUCT_DEFINITION_FORMATION_WITH_SPECIFIED_SOURCE ( 'ANY', '', #82, .NOT_KNOWN. ) ;
#85 = APPROVAL_DATE_TIME ( #226, #59 ) ;
#86 = LINE ( 'NONE', #167, #148 ) ;
#87 = ADVANCED_FACE ( 'NONE', ( #195 ), #7, .F. ) ;
#88 = CARTESIAN_POINT ( 'NONE',  ( 12.50000000000000500, 12.49999999999999800, 3.000000000000000000 ) ) ;
#89 = ADVANCED_BREP_SHAPE_REPRESENTATION ( 'Web Model 37128MX_37134', ( #138, #77 ), #205 ) ;
#90 = DIRECTION ( 'NONE',  ( 1.000000000000000000, 1.387778780781445700E-016, -0.0000000000000000000 ) ) ;
#91 = CC_DESIGN_PERSON_AND_ORGANIZATION_ASSIGNMENT ( #81, #98, ( #82 ) ) ;
#92 = DATE_AND_TIME ( #147, #213 ) ;
#93 = FACE_OUTER_BOUND ( 'NONE', #68, .T. ) ;
#94 = CARTESIAN_POINT ( 'NONE',  ( 12.50000000000000500, -12.50000000000000200, -3.000000000000000000 ) ) ;
#95 = APPROVAL ( #191, 'UNSPECIFIED' ) ;
#96 = CARTESIAN_POINT ( 'NONE',  ( 12.50000000000000500, -12.50000000000000200, 3.000000000000000000 ) ) ;
#97 = VECTOR ( 'NONE', #208, 1000.000000000000000 ) ;
#98 = PERSON_AND_ORGANIZATION_ROLE ( 'design_owner' ) ;
#99 = FACE_OUTER_BOUND ( 'NONE', #123, .T. ) ;
#100 = LINE ( 'NONE', #181, #236 ) ;
#101 = DATE_AND_TIME ( #210, #70 ) ;
#102 = DIRECTION ( 'NONE',  ( 1.000000000000000000, 1.387778780781445700E-016, -0.0000000000000000000 ) ) ;
#103 = ORIENTED_EDGE ( 'NONE', *, *, #158, .T. ) ;
#104 = DIRECTION ( 'NONE',  ( -0.0000000000000000000, -0.0000000000000000000, -1.000000000000000000 ) ) ;
#105 = APPROVAL_PERSON_ORGANIZATION ( #165, #59, #67 ) ;
#106 = ADVANCED_FACE ( 'NONE', ( #32 ), #134, .F. ) ;
#107 = CARTESIAN_POINT ( 'NONE',  ( 12.50000000000000500, -12.50000000000000200, 3.000000000000000000 ) ) ;
#108 = PRODUCT_DEFINITION_SHAPE ( 'NONE', 'NONE',  #190 ) ;
#109 = CARTESIAN_POINT ( 'NONE',  ( -12.49999999999999500, -12.50000000000000500, 3.000000000000000000 ) ) ;
#110 = CARTESIAN_POINT ( 'NONE',  ( -12.49999999999999500, -12.50000000000000500, -3.000000000000000000 ) ) ;
#111 = EDGE_CURVE ( 'NONE', #216, #14, #145, .T. ) ;
#112 = VECTOR ( 'NONE', #102, 1000.000000000000000 ) ;
#113 = ORIENTED_EDGE ( 'NONE', *, *, #132, .F. ) ;
#114 = DIRECTION ( 'NONE',  ( -0.0000000000000000000, -0.0000000000000000000, -1.000000000000000000 ) ) ;
#115 = CARTESIAN_POINT ( 'NONE',  ( -12.49999999999999500, -12.50000000000000500, 3.000000000000000000 ) ) ;
#116 = COORDINATED_UNIVERSAL_TIME_OFFSET ( 5, 0, .BEHIND. ) ;
#117 = EDGE_CURVE ( 'NONE', #14, #224, #150, .T. ) ;
#118 = SECURITY_CLASSIFICATION_LEVEL ( 'unclassified' ) ;
#119 = CC_DESIGN_PERSON_AND_ORGANIZATION_ASSIGNMENT ( #27, #15, ( #190 ) ) ;
#120 = COORDINATED_UNIVERSAL_TIME_OFFSET ( 5, 0, .BEHIND. ) ;
#121 = ADVANCED_FACE ( 'NONE', ( #99 ), #156, .T. ) ;
#122 = DATE_AND_TIME ( #175, #192 ) ;
#123 = EDGE_LOOP ( 'NONE', ( #219, #183, #151, #78 ) ) ;
#124 = DESIGN_CONTEXT ( 'detailed design', #174, 'design' ) ;
#125 = APPROVAL_DATE_TIME ( #198, #180 ) ;
#126 = EDGE_CURVE ( 'NONE', #61, #83, #6, .T. ) ;
#127 = PLANE ( 'NONE',  #222 ) ;
#128 = VECTOR ( 'NONE', #90, 1000.000000000000000 ) ;
#129 = DIRECTION ( 'NONE',  ( 1.000000000000000000, 0.0000000000000000000, 0.0000000000000000000 ) ) ;
#130 = EDGE_CURVE ( 'NONE', #224, #199, #189, .T. ) ;
#131 = CARTESIAN_POINT ( 'NONE',  ( 12.50000000000000500, -12.50000000000000200, 3.000000000000000000 ) ) ;
#132 = EDGE_CURVE ( 'NONE', #207, #216, #44, .T. ) ;
#133 = PERSON_AND_ORGANIZATION ( #50, #178 ) ;
#134 = PLANE ( 'NONE',  #55 ) ;
#135 = DIRECTION ( 'NONE',  ( -1.000000000000000000, -1.387778780781445700E-016, 0.0000000000000000000 ) ) ;
#136 = EDGE_CURVE ( 'NONE', #199, #61, #179, .T. ) ;
#137 =( NAMED_UNIT ( * ) PLANE_ANGLE_UNIT ( ) SI_UNIT ( $, .RADIAN. ) );
#138 = MANIFOLD_SOLID_BREP ( 'Boss-Extrude1', #79 ) ;
#139 = PERSON_AND_ORGANIZATION_ROLE ( 'classification_officer' ) ;
#140 = LOCAL_TIME ( 12, 12, 26.00000000000000000, #64 ) ;
#141 = ORIENTED_EDGE ( 'NONE', *, *, #111, .F. ) ;
#142 = DIRECTION ( 'NONE',  ( 0.0000000000000000000, 0.0000000000000000000, 1.000000000000000000 ) ) ;
#143 = DATE_TIME_ROLE ( 'classification_date' ) ;
#144 = SECURITY_CLASSIFICATION ( '', '', #118 ) ;
#145 = LINE ( 'NONE', #109, #97 ) ;
#146 = DIRECTION ( 'NONE',  ( 1.000000000000000000, 0.0000000000000000000, -0.0000000000000000000 ) ) ;
#147 = CALENDAR_DATE ( 2018, 8, 5 ) ;
#148 = VECTOR ( 'NONE', #104, 1000.000000000000000 ) ;
#149 = AXIS2_PLACEMENT_3D ( 'NONE', #4, #221, #35 ) ;
#150 = LINE ( 'NONE', #115, #48 ) ;
#151 = ORIENTED_EDGE ( 'NONE', *, *, #62, .T. ) ;
#152 = CARTESIAN_POINT ( 'NONE',  ( 12.50000000000000500, -12.50000000000000200, 3.000000000000000000 ) ) ;
#153 = COORDINATED_UNIVERSAL_TIME_OFFSET ( 5, 0, .BEHIND. ) ;
#154 = LINE ( 'NONE', #220, #112 ) ;
#155 = ORIENTED_EDGE ( 'NONE', *, *, #41, .F. ) ;
#156 = PLANE ( 'NONE',  #161 ) ;
#157 = CARTESIAN_POINT ( 'NONE',  ( -12.49999999999999500, 12.49999999999999500, 3.000000000000000000 ) ) ;
#158 = EDGE_CURVE ( 'NONE', #207, #61, #39, .T. ) ;
#159 = ORIENTED_EDGE ( 'NONE', *, *, #62, .F. ) ;
#160 = APPROVAL_STATUS ( 'not_yet_approved' ) ;
#161 = AXIS2_PLACEMENT_3D ( 'NONE', #26, #12, #186 ) ;
#162 = APPROVAL_STATUS ( 'not_yet_approved' ) ;
#163 = APPROVAL_PERSON_ORGANIZATION ( #169, #180, #80 ) ;
#164 = ORIENTED_EDGE ( 'NONE', *, *, #136, .F. ) ;
#165 = PERSON_AND_ORGANIZATION ( #50, #178 ) ;
#166 = FACE_OUTER_BOUND ( 'NONE', #24, .T. ) ;
#167 = CARTESIAN_POINT ( 'NONE',  ( -12.49999999999999500, 12.49999999999999500, 3.000000000000000000 ) ) ;
#168 = VECTOR ( 'NONE', #72, 1000.000000000000000 ) ;
#169 = PERSON_AND_ORGANIZATION ( #50, #178 ) ;
#170 = DIRECTION ( 'NONE',  ( 0.0000000000000000000, 0.0000000000000000000, -1.000000000000000000 ) ) ;
#171 = DIRECTION ( 'NONE',  ( -1.000000000000000000, 0.0000000000000000000, 0.0000000000000000000 ) ) ;
#172 = APPROVAL_PERSON_ORGANIZATION ( #31, #95, #234 ) ;
#173 =( NAMED_UNIT ( * ) SI_UNIT ( $, .STERADIAN. ) SOLID_ANGLE_UNIT ( ) );
#174 = APPLICATION_CONTEXT ( 'configuration controlled 3d designs of mechanical parts and assemblies' ) ;
#175 = CALENDAR_DATE ( 2018, 8, 5 ) ;
#176 = EDGE_LOOP ( 'NONE', ( #228, #25, #19, #60 ) ) ;
#177 = CC_DESIGN_DATE_AND_TIME_ASSIGNMENT ( #101, #143, ( #144 ) ) ;
#178 = ORGANIZATION ( 'UNSPECIFIED', 'UNSPECIFIED', '' ) ;
#179 = LINE ( 'NONE', #94, #22 ) ;
#180 = APPROVAL ( #160, 'UNSPECIFIED' ) ;
#181 = CARTESIAN_POINT ( 'NONE',  ( -12.49999999999999500, -12.50000000000000500, -3.000000000000000000 ) ) ;
#182 = AXIS2_PLACEMENT_3D ( 'NONE', #69, #21, #146 ) ;
#183 = ORIENTED_EDGE ( 'NONE', *, *, #71, .T. ) ;
#184 = DIRECTION ( 'NONE',  ( 0.0000000000000000000, 0.0000000000000000000, 1.000000000000000000 ) ) ;
#185 = PERSON_AND_ORGANIZATION ( #50, #178 ) ;
#186 = DIRECTION ( 'NONE',  ( 1.000000000000000000, 0.0000000000000000000, -0.0000000000000000000 ) ) ;
#187 = ORIENTED_EDGE ( 'NONE', *, *, #37, .T. ) ;
#188 = CARTESIAN_POINT ( 'NONE',  ( 12.50000000000000500, -12.50000000000000200, -3.000000000000000000 ) ) ;
#189 = LINE ( 'NONE', #188, #128 ) ;
#190 = PRODUCT_DEFINITION ( 'UNKNOWN', '', #84, #124 ) ;
#191 = APPROVAL_STATUS ( 'not_yet_approved' ) ;
#192 = LOCAL_TIME ( 12, 12, 26.00000000000000000, #120 ) ;
#193 = ORIENTED_EDGE ( 'NONE', *, *, #76, .T. ) ;
#194 = PRODUCT_RELATED_PRODUCT_CATEGORY ( 'detail', '', ( #82 ) ) ;
#195 = FACE_OUTER_BOUND ( 'NONE', #176, .T. ) ;
#196 = LOCAL_TIME ( 12, 12, 26.00000000000000000, #153 ) ;
#197 = ORIENTED_EDGE ( 'NONE', *, *, #126, .T. ) ;
#198 = DATE_AND_TIME ( #3, #196 ) ;
#199 = VERTEX_POINT ( 'NONE', #212 ) ;
#200 = PLANE ( 'NONE',  #2 ) ;
#201 = ORIENTED_EDGE ( 'NONE', *, *, #117, .F. ) ;
#202 = CC_DESIGN_APPROVAL ( #59, ( #144 ) ) ;
#203 = DIRECTION ( 'NONE',  ( 1.000000000000000000, 1.387778780781445400E-016, 0.0000000000000000000 ) ) ;
#204 = CARTESIAN_POINT ( 'NONE',  ( 12.50000000000000500, 12.49999999999999800, 3.000000000000000000 ) ) ;
#205 =( GEOMETRIC_REPRESENTATION_CONTEXT ( 3 ) GLOBAL_UNCERTAINTY_ASSIGNED_CONTEXT ( ( #233 ) ) GLOBAL_UNIT_ASSIGNED_CONTEXT ( ( #237, #137, #173 ) ) REPRESENTATION_CONTEXT ( 'NONE', 'WORKASPACE' ) );
#206 = CC_DESIGN_APPROVAL ( #180, ( #84 ) ) ;
#207 = VERTEX_POINT ( 'NONE', #211 ) ;
#208 = DIRECTION ( 'NONE',  ( -0.0000000000000000000, -1.000000000000000000, -0.0000000000000000000 ) ) ;
#209 = DIRECTION ( 'NONE',  ( -0.0000000000000000000, -0.0000000000000000000, -1.000000000000000000 ) ) ;
#210 = CALENDAR_DATE ( 2018, 8, 5 ) ;
#211 = CARTESIAN_POINT ( 'NONE',  ( 12.50000000000000500, 12.49999999999999800, 3.000000000000000000 ) ) ;
#212 = CARTESIAN_POINT ( 'NONE',  ( 12.50000000000000500, -12.50000000000000200, -3.000000000000000000 ) ) ;
#213 = LOCAL_TIME ( 12, 12, 26.00000000000000000, #43 ) ;
#214 = EDGE_LOOP ( 'NONE', ( #197, #34, #113, #103 ) ) ;
#215 = PERSON_AND_ORGANIZATION ( #50, #178 ) ;
#216 = VERTEX_POINT ( 'NONE', #157 ) ;
#217 = CARTESIAN_POINT ( 'NONE',  ( -12.49999999999999500, -12.50000000000000500, 3.000000000000000000 ) ) ;
#218 = VECTOR ( 'NONE', #229, 1000.000000000000000 ) ;
#219 = ORIENTED_EDGE ( 'NONE', *, *, #111, .T. ) ;
#220 = CARTESIAN_POINT ( 'NONE',  ( 12.50000000000000500, -12.50000000000000200, 3.000000000000000000 ) ) ;
#221 = DIRECTION ( 'NONE',  ( -1.387778780781445400E-016, 1.000000000000000000, 0.0000000000000000000 ) ) ;
#222 = AXIS2_PLACEMENT_3D ( 'NONE', #9, #129, #170 ) ;
#223 = VECTOR ( 'NONE', #10, 1000.000000000000000 ) ;
#224 = VERTEX_POINT ( 'NONE', #110 ) ;
#225 = CARTESIAN_POINT ( 'NONE',  ( 12.50000000000000500, 12.49999999999999800, -3.000000000000000000 ) ) ;
#226 = DATE_AND_TIME ( #20, #140 ) ;
#227 = FACE_OUTER_BOUND ( 'NONE', #214, .T. ) ;
#228 = ORIENTED_EDGE ( 'NONE', *, *, #130, .T. ) ;
#229 = DIRECTION ( 'NONE',  ( -1.000000000000000000, -1.387778780781445700E-016, 0.0000000000000000000 ) ) ;
#230 = CC_DESIGN_PERSON_AND_ORGANIZATION_ASSIGNMENT ( #133, #235, ( #84 ) ) ;
#231 = ORIENTED_EDGE ( 'NONE', *, *, #41, .T. ) ;
#232 = DIRECTION ( 'NONE',  ( 1.000000000000000000, 0.0000000000000000000, 0.0000000000000000000 ) ) ;
#233 = UNCERTAINTY_MEASURE_WITH_UNIT (LENGTH_MEASURE( 1.000000000000000100E-005 ), #237, 'distance_accuracy_value', 'NONE');
#234 = APPROVAL_ROLE ( '' ) ;
#235 = PERSON_AND_ORGANIZATION_ROLE ( 'design_supplier' ) ;
#236 = VECTOR ( 'NONE', #54, 1000.000000000000000 ) ;
#237 =( LENGTH_UNIT ( ) NAMED_UNIT ( * ) SI_UNIT ( .MILLI., .METRE. ) );
ENDSEC;
END-ISO-10303-21;
