ISO-10303-21;
HEADER;
FILE_DESCRIPTION (( 'STEP AP203' ),
    '1' );
FILE_NAME ('4928-E0W.STEP',
    '2015-07-13T15:20:54',
    ( 'admin' ),
    ( '' ),
    'SwSTEP 2.0',
    'SolidWorks 2014',
    '' );
FILE_SCHEMA (( 'CONFIG_CONTROL_DESIGN' ));
ENDSEC;

DATA;
#1 = ORIENTED_EDGE ( 'NONE', *, *, #330, .F. ) ;
#2 = CARTESIAN_POINT ( 'NONE',  ( 0.0000000000000000000, 0.0000000000000000000, -331.7827436965881100 ) ) ;
#3 = AXIS2_PLACEMENT_3D ( 'NONE', #242, #208, #27 ) ;
#4 = CARTESIAN_POINT ( 'NONE',  ( -12.69999999999999900, 1.555301434917138400E-015, -1.176769026838810000 ) ) ;
#5 = CIRCLE ( 'NONE', #100, 12.45008993819446600 ) ;
#6 = EDGE_CURVE ( 'NONE', #359, #211, #94, .T. ) ;
#7 = DIRECTION ( 'NONE',  ( -0.0000000000000000000, -0.0000000000000000000, 1.000000000000000000 ) ) ;
#8 = ORIENTED_EDGE ( 'NONE', *, *, #214, .F. ) ;
#9 = CARTESIAN_POINT ( 'NONE',  ( 12.69999999999999900, 0.0000000000000000000, -1.176769026838810000 ) ) ;
#10 = ORIENTED_EDGE ( 'NONE', *, *, #247, .T. ) ;
#11 = CC_DESIGN_PERSON_AND_ORGANIZATION_ASSIGNMENT ( #364, #69, ( #318 ) ) ;
#12 = ORIENTED_EDGE ( 'NONE', *, *, #236, .T. ) ;
#13 = ADVANCED_FACE ( 'NONE', ( #308 ), #336, .T. ) ;
#14 = CC_DESIGN_SECURITY_CLASSIFICATION ( #128, ( #41 ) ) ;
#15 = CARTESIAN_POINT ( 'NONE',  ( 0.0000000000000000000, 0.0000000000000000000, -1.176769026838810000 ) ) ;
#16 = AXIS2_PLACEMENT_3D ( 'NONE', #212, #53, #246 ) ;
#17 = PRODUCT_DEFINITION_SHAPE ( 'NONE', 'NONE',  #318 ) ;
#18 = EDGE_CURVE ( 'NONE', #227, #154, #264, .T. ) ;
#19 = DIRECTION ( 'NONE',  ( -1.000000000000000000, 0.0000000000000000000, 0.0000000000000000000 ) ) ;
#20 = DIRECTION ( 'NONE',  ( -0.0000000000000000000, -0.0000000000000000000, 1.000000000000000000 ) ) ;
#21 = CARTESIAN_POINT ( 'NONE',  ( 0.0000000000000000000, 0.0000000000000000000, -96.18274369658807600 ) ) ;
#22 = CARTESIAN_POINT ( 'NONE',  ( 12.45008993819446600, 0.0000000000000000000, -1.417256303411919200 ) ) ;
#23 = APPLICATION_CONTEXT ( 'configuration controlled 3d designs of mechanical parts and assemblies' ) ;
#24 = DIRECTION ( 'NONE',  ( -1.224646799147353200E-016, -1.000000000000000000, 0.0000000000000000000 ) ) ;
#25 = APPROVAL_STATUS ( 'not_yet_approved' ) ;
#26 = APPROVAL_DATE_TIME ( #169, #345 ) ;
#27 = DIRECTION ( 'NONE',  ( 1.000000000000000000, 0.0000000000000000000, 0.0000000000000000000 ) ) ;
#28 = CC_DESIGN_DATE_AND_TIME_ASSIGNMENT ( #197, #270, ( #318 ) ) ;
#29 = ADVANCED_FACE ( 'NONE', ( #299 ), #276, .T. ) ;
#30 = DIRECTION ( 'NONE',  ( 1.000000000000000000, -1.224646799147353200E-016, 0.0000000000000000000 ) ) ;
#31 = PRODUCT_RELATED_PRODUCT_CATEGORY ( 'detail', '', ( #358 ) ) ;
#32 = CARTESIAN_POINT ( 'NONE',  ( 0.0000000000000000000, 0.0000000000000000000, 0.3374479948619821300 ) ) ;
#33 = AXIS2_PLACEMENT_3D ( 'NONE', #101, #309, #129 ) ;
#34 = CALENDAR_DATE ( 2015, 13, 7 ) ;
#35 = ORIENTED_EDGE ( 'NONE', *, *, #141, .F. ) ;
#36 = EDGE_CURVE ( 'NONE', #227, #168, #294, .T. ) ;
#37 = CIRCLE ( 'NONE', #302, 97.60000000000002300 ) ;
#38 = DIRECTION ( 'NONE',  ( -0.0000000000000000000, -0.0000000000000000000, 1.000000000000000000 ) ) ;
#39 = ORIENTED_EDGE ( 'NONE', *, *, #292, .F. ) ;
#40 = CIRCLE ( 'NONE', #218, 97.60000000000000900 ) ;
#41 = PRODUCT_DEFINITION_FORMATION_WITH_SPECIFIED_SOURCE ( 'ANY', '', #358, .NOT_KNOWN. ) ;
#42 = CARTESIAN_POINT ( 'NONE',  ( 12.45244478710970900, 1.524984665009304700E-015, 0.6196148429846239900 ) ) ;
#43 = ORIENTED_EDGE ( 'NONE', *, *, #127, .T. ) ;
#44 = DIRECTION ( 'NONE',  ( 0.0000000000000000000, 0.0000000000000000000, -1.000000000000000000 ) ) ;
#45 = ORIENTED_EDGE ( 'NONE', *, *, #279, .T. ) ;
#46 = CARTESIAN_POINT ( 'NONE',  ( 0.0000000000000000000, 0.0000000000000000000, 1.417256303411937400 ) ) ;
#47 = APPROVAL_STATUS ( 'not_yet_approved' ) ;
#48 = DIRECTION ( 'NONE',  ( 0.0000000000000000000, -1.000000000000000000, 0.0000000000000000000 ) ) ;
#49 = VERTEX_POINT ( 'NONE', #221 ) ;
#50 = ORIENTED_EDGE ( 'NONE', *, *, #183, .T. ) ;
#51 = AXIS2_PLACEMENT_3D ( 'NONE', #184, #30, #216 ) ;
#52 = CIRCLE ( 'NONE', #173, 12.45244478710971800 ) ;
#53 = DIRECTION ( 'NONE',  ( -1.000000000000000000, -0.0000000000000000000, -0.0000000000000000000 ) ) ;
#54 = DIRECTION ( 'NONE',  ( -1.000000000000000000, 0.0000000000000000000, 0.0000000000000000000 ) ) ;
#55 = EDGE_CURVE ( 'NONE', #139, #125, #352, .T. ) ;
#56 = CARTESIAN_POINT ( 'NONE',  ( 12.69999999999999900, 0.0000000000000000000, 1.417256303411937400 ) ) ;
#57 = DIRECTION ( 'NONE',  ( -0.0000000000000000000, -0.0000000000000000000, 1.000000000000000000 ) ) ;
#58 = CIRCLE ( 'NONE', #171, 12.45008993819446600 ) ;
#59 = CARTESIAN_POINT ( 'NONE',  ( 0.0000000000000000000, 0.0000000000000000000, -96.18274369658807600 ) ) ;
#60 = DIRECTION ( 'NONE',  ( -1.000000000000000000, 0.0000000000000000000, 0.0000000000000000000 ) ) ;
#61 = CARTESIAN_POINT ( 'NONE',  ( 0.0000000000000000000, 0.0000000000000000000, -1.417256303411919200 ) ) ;
#62 = APPROVAL ( #96, 'UNSPECIFIED' ) ;
#63 = CIRCLE ( 'NONE', #65, 12.45008993819446600 ) ;
#64 = FACE_OUTER_BOUND ( 'NONE', #293, .T. ) ;
#65 = AXIS2_PLACEMENT_3D ( 'NONE', #280, #102, #311 ) ;
#66 = EDGE_CURVE ( 'NONE', #154, #49, #52, .T. ) ;
#67 = DIRECTION ( 'NONE',  ( 0.0000000000000000000, 1.000000000000000000, 0.0000000000000000000 ) ) ;
#68 = CARTESIAN_POINT ( 'NONE',  ( 0.0000000000000000000, 0.0000000000000000000, 0.6196148429846239900 ) ) ;
#69 = PERSON_AND_ORGANIZATION_ROLE ( 'creator' ) ;
#70 = DATE_AND_TIME ( #34, #243 ) ;
#71 = CC_DESIGN_APPROVAL ( #62, ( #41 ) ) ;
#72 = DIRECTION ( 'NONE',  ( 0.0000000000000000000, 0.0000000000000000000, -1.000000000000000000 ) ) ;
#73 = CARTESIAN_POINT ( 'NONE',  ( 0.0000000000000000000, 0.0000000000000000000, 0.6196148429846239900 ) ) ;
#74 = ORGANIZATION ( 'UNSPECIFIED', 'UNSPECIFIED', '' ) ;
#75 = PERSON_AND_ORGANIZATION ( #192, #74 ) ;
#76 = ORIENTED_EDGE ( 'NONE', *, *, #228, .T. ) ;
#77 = CARTESIAN_POINT ( 'NONE',  ( 0.0000000000000000000, 0.0000000000000000000, -1.176769026838810000 ) ) ;
#78 = CARTESIAN_POINT ( 'NONE',  ( -12.69999999999999900, 1.555301434917138000E-015, -1.176769026838810000 ) ) ;
#79 = AXIS2_PLACEMENT_3D ( 'NONE', #73, #72, #54 ) ;
#80 = DIRECTION ( 'NONE',  ( -1.000000000000000000, 0.0000000000000000000, 0.0000000000000000000 ) ) ;
#81 = PERSON_AND_ORGANIZATION ( #192, #74 ) ;
#82 = APPROVAL_PERSON_ORGANIZATION ( #75, #338, #241 ) ;
#83 = ORIENTED_EDGE ( 'NONE', *, *, #36, .T. ) ;
#84 = UNCERTAINTY_MEASURE_WITH_UNIT (LENGTH_MEASURE( 1.000000000000000100E-005 ), #160, 'distance_accuracy_value', 'NONE');
#85 = DIRECTION ( 'NONE',  ( 0.6594986918790213300, 8.076529620515100200E-017, -0.7517057106407132300 ) ) ;
#86 = AXIS2_PLACEMENT_3D ( 'NONE', #15, #38, #230 ) ;
#87 = COORDINATED_UNIVERSAL_TIME_OFFSET ( 5, 0, .BEHIND. ) ;
#88 = ORIENTED_EDGE ( 'NONE', *, *, #18, .F. ) ;
#89 = ADVANCED_FACE ( 'NONE', ( #319 ), #348, .T. ) ;
#90 = DIRECTION ( 'NONE',  ( -1.000000000000000000, 0.0000000000000000000, 0.0000000000000000000 ) ) ;
#91 = CC_DESIGN_PERSON_AND_ORGANIZATION_ASSIGNMENT ( #225, #122, ( #41 ) ) ;
#92 = ADVANCED_FACE ( 'NONE', ( #328 ), #356, .T. ) ;
#93 = CARTESIAN_POINT ( 'NONE',  ( 0.0000000000000000000, -12.45008993819518200, -1.417256303411957400 ) ) ;
#94 = CIRCLE ( 'NONE', #86, 12.69999999999999900 ) ;
#95 = DIRECTION ( 'NONE',  ( -1.000000000000000000, 0.0000000000000000000, 0.0000000000000000000 ) ) ;
#96 = APPROVAL_STATUS ( 'not_yet_approved' ) ;
#97 = CARTESIAN_POINT ( 'NONE',  ( 12.69999999999999900, 0.0000000000000000000, 0.3374479948619821300 ) ) ;
#98 = PERSON_AND_ORGANIZATION ( #192, #74 ) ;
#99 = SHAPE_DEFINITION_REPRESENTATION ( #17, #287 ) ;
#100 = AXIS2_PLACEMENT_3D ( 'NONE', #132, #344, #158 ) ;
#101 = CARTESIAN_POINT ( 'NONE',  ( 0.0000000000000000000, 0.0000000000000000000, 0.3374479948619821300 ) ) ;
#102 = DIRECTION ( 'NONE',  ( 0.0000000000000000000, 0.0000000000000000000, -1.000000000000000000 ) ) ;
#103 = AXIS2_PLACEMENT_3D ( 'NONE', #172, #20, #115 ) ;
#104 = ORIENTED_EDGE ( 'NONE', *, *, #55, .T. ) ;
#105 = EDGE_LOOP ( 'NONE', ( #88, #83, #245, #239, #204 ) ) ;
#106 = DIRECTION ( 'NONE',  ( 1.000000000000000000, 0.0000000000000000000, 0.0000000000000000000 ) ) ;
#107 = CALENDAR_DATE ( 2015, 13, 7 ) ;
#108 = VERTEX_POINT ( 'NONE', #93 ) ;
#109 = ORIENTED_EDGE ( 'NONE', *, *, #310, .F. ) ;
#110 =( NAMED_UNIT ( * ) PLANE_ANGLE_UNIT ( ) SI_UNIT ( $, .RADIAN. ) );
#111 = FACE_OUTER_BOUND ( 'NONE', #355, .T. ) ;
#112 = CC_DESIGN_PERSON_AND_ORGANIZATION_ASSIGNMENT ( #340, #334, ( #41 ) ) ;
#113 = ADVANCED_FACE ( 'NONE', ( #111 ), #342, .T. ) ;
#114 = VERTEX_POINT ( 'NONE', #143 ) ;
#115 = DIRECTION ( 'NONE',  ( 1.000000000000000000, 0.0000000000000000000, 0.0000000000000000000 ) ) ;
#116 = ORIENTED_EDGE ( 'NONE', *, *, #265, .F. ) ;
#117 = ORIENTED_EDGE ( 'NONE', *, *, #310, .T. ) ;
#118 = AXIS2_PLACEMENT_3D ( 'NONE', #77, #285, #106 ) ;
#119 = AXIS2_PLACEMENT_3D ( 'NONE', #300, #329, #249 ) ;
#120 = DIRECTION ( 'NONE',  ( -0.0000000000000000000, -0.0000000000000000000, 1.000000000000000000 ) ) ;
#121 = DIRECTION ( 'NONE',  ( 0.0000000000000000000, 0.0000000000000000000, 1.000000000000000000 ) ) ;
#122 = PERSON_AND_ORGANIZATION_ROLE ( 'creator' ) ;
#123 = CYLINDRICAL_SURFACE ( 'NONE', #3, 12.69999999999999900 ) ;
#124 = CARTESIAN_POINT ( 'NONE',  ( 0.0000000000000000000, 0.0000000000000000000, -96.18274369658807600 ) ) ;
#125 = VERTEX_POINT ( 'NONE', #22 ) ;
#126 = CARTESIAN_POINT ( 'NONE',  ( 0.0000000000000000000, 0.0000000000000000000, 0.6196148429846239900 ) ) ;
#127 = EDGE_CURVE ( 'NONE', #49, #188, #337, .T. ) ;
#128 = SECURITY_CLASSIFICATION ( '', '', #148 ) ;
#129 = DIRECTION ( 'NONE',  ( -1.000000000000000000, 0.0000000000000000000, 0.0000000000000000000 ) ) ;
#130 = FACE_OUTER_BOUND ( 'NONE', #193, .T. ) ;
#131 = CALENDAR_DATE ( 2015, 13, 7 ) ;
#132 = CARTESIAN_POINT ( 'NONE',  ( 0.0000000000000000000, 0.0000000000000000000, -1.417256303411919200 ) ) ;
#133 = DIRECTION ( 'NONE',  ( -0.6594986918790213300, 0.0000000000000000000, -0.7517057106407132300 ) ) ;
#134 = VERTEX_POINT ( 'NONE', #360 ) ;
#135 = AXIS2_PLACEMENT_3D ( 'NONE', #32, #222, #60 ) ;
#136 = AXIS2_PLACEMENT_3D ( 'NONE', #164, #258, #185 ) ;
#137 = COORDINATED_UNIVERSAL_TIME_OFFSET ( 5, 0, .BEHIND. ) ;
#138 = APPROVAL_DATE_TIME ( #179, #338 ) ;
#139 = VERTEX_POINT ( 'NONE', #202 ) ;
#140 = ORIENTED_EDGE ( 'NONE', *, *, #66, .T. ) ;
#141 = EDGE_CURVE ( 'NONE', #188, #114, #40, .T. ) ;
#142 = CC_DESIGN_PERSON_AND_ORGANIZATION_ASSIGNMENT ( #210, #366, ( #128 ) ) ;
#143 = CARTESIAN_POINT ( 'NONE',  ( 0.0000000000000000000, 5.976276379839084200E-015, 1.417256303411926300 ) ) ;
#144 = APPLICATION_PROTOCOL_DEFINITION ( 'international standard', 'config_control_design', 1994, #349 ) ;
#145 = VECTOR ( 'NONE', #7, 1000.000000000000000 ) ;
#146 = EDGE_LOOP ( 'NONE', ( #140, #43, #323, #256 ) ) ;
#147 = DIRECTION ( 'NONE',  ( 1.000000000000000000, 0.0000000000000000000, 0.0000000000000000000 ) ) ;
#148 = SECURITY_CLASSIFICATION_LEVEL ( 'unclassified' ) ;
#149 = DIRECTION ( 'NONE',  ( 0.0000000000000000000, 0.0000000000000000000, -1.000000000000000000 ) ) ;
#150 = LINE ( 'NONE', #78, #284 ) ;
#151 = AXIS2_PLACEMENT_3D ( 'NONE', #187, #57, #159 ) ;
#152 = FACE_OUTER_BOUND ( 'NONE', #266, .T. ) ;
#153 = VECTOR ( 'NONE', #133, 1000.000000000000000 ) ;
#154 = VERTEX_POINT ( 'NONE', #240 ) ;
#155 = DIRECTION ( 'NONE',  ( -1.000000000000000000, 0.0000000000000000000, 0.0000000000000000000 ) ) ;
#156 = CARTESIAN_POINT ( 'NONE',  ( -12.69999999999999900, 1.555301434917138400E-015, 1.417256303411937400 ) ) ;
#157 = AXIS2_PLACEMENT_3D ( 'NONE', #59, #286, #331 ) ;
#158 = DIRECTION ( 'NONE',  ( -1.000000000000000000, 0.0000000000000000000, 0.0000000000000000000 ) ) ;
#159 = DIRECTION ( 'NONE',  ( 1.000000000000000000, 0.0000000000000000000, 0.0000000000000000000 ) ) ;
#160 =( LENGTH_UNIT ( ) NAMED_UNIT ( * ) SI_UNIT ( .MILLI., .METRE. ) );
#161 = APPROVAL_PERSON_ORGANIZATION ( #224, #345, #207 ) ;
#162 = SPHERICAL_SURFACE ( 'NONE', #324, 330.6000000000000200 ) ;
#163 = ORIENTED_EDGE ( 'NONE', *, *, #166, .T. ) ;
#164 = CARTESIAN_POINT ( 'NONE',  ( 0.0000000000000000000, 0.0000000000000000000, -1.417256303411919200 ) ) ;
#165 = ADVANCED_FACE ( 'NONE', ( #180 ), #320, .F. ) ;
#166 = EDGE_CURVE ( 'NONE', #154, #114, #37, .T. ) ;
#167 = ORIENTED_EDGE ( 'NONE', *, *, #257, .T. ) ;
#168 = VERTEX_POINT ( 'NONE', #97 ) ;
#169 = DATE_AND_TIME ( #314, #253 ) ;
#170 = ADVANCED_FACE ( 'NONE', ( #130 ), #162, .F. ) ;
#171 = AXIS2_PLACEMENT_3D ( 'NONE', #61, #254, #80 ) ;
#172 = CARTESIAN_POINT ( 'NONE',  ( 0.0000000000000000000, 0.0000000000000000000, -1.176769026838810000 ) ) ;
#173 = AXIS2_PLACEMENT_3D ( 'NONE', #229, #195, #90 ) ;
#174 = DIRECTION ( 'NONE',  ( 1.000000000000000000, 0.0000000000000000000, 0.0000000000000000000 ) ) ;
#175 = PERSON_AND_ORGANIZATION_ROLE ( 'design_owner' ) ;
#176 = DIRECTION ( 'NONE',  ( -1.000000000000000000, 1.224646799147353200E-016, 0.0000000000000000000 ) ) ;
#177 = DATE_TIME_ROLE ( 'classification_date' ) ;
#178 = DIRECTION ( 'NONE',  ( 0.0000000000000000000, -1.000000000000000000, 0.0000000000000000000 ) ) ;
#179 = DATE_AND_TIME ( #107, #321 ) ;
#180 = FACE_OUTER_BOUND ( 'NONE', #273, .T. ) ;
#181 = VERTEX_POINT ( 'NONE', #306 ) ;
#182 = ADVANCED_FACE ( 'NONE', ( #64 ), #123, .T. ) ;
#183 = EDGE_CURVE ( 'NONE', #188, #227, #201, .T. ) ;
#184 = CARTESIAN_POINT ( 'NONE',  ( 0.0000000000000000000, 0.0000000000000000000, -331.7827436965881100 ) ) ;
#185 = DIRECTION ( 'NONE',  ( -1.000000000000000000, 0.0000000000000000000, 0.0000000000000000000 ) ) ;
#186 = FACE_OUTER_BOUND ( 'NONE', #288, .T. ) ;
#187 = CARTESIAN_POINT ( 'NONE',  ( 0.0000000000000000000, 0.0000000000000000000, -1.176769026838810000 ) ) ;
#188 = VERTEX_POINT ( 'NONE', #278 ) ;
#189 = ORIENTED_EDGE ( 'NONE', *, *, #330, .T. ) ;
#190 =( GEOMETRIC_REPRESENTATION_CONTEXT ( 3 ) GLOBAL_UNCERTAINTY_ASSIGNED_CONTEXT ( ( #84 ) ) GLOBAL_UNIT_ASSIGNED_CONTEXT ( ( #160, #110, #315 ) ) REPRESENTATION_CONTEXT ( 'NONE', 'WORKASPACE' ) );
#191 = EDGE_CURVE ( 'NONE', #108, #181, #317, .T. ) ;
#192 = PERSON ( 'UNSPECIFIED', 'UNSPECIFIED', 'UNSPECIFIED', ('UNSPECIFIED'), ('UNSPECIFIED'), ('UNSPECIFIED') ) ;
#193 = EDGE_LOOP ( 'NONE', ( #8, #104, #301, #199 ) ) ;
#194 = AXIS2_PLACEMENT_3D ( 'NONE', #268, #44, #19 ) ;
#195 = DIRECTION ( 'NONE',  ( -0.0000000000000000000, -0.0000000000000000000, 1.000000000000000000 ) ) ;
#196 = VECTOR ( 'NONE', #341, 1000.000000000000000 ) ;
#197 = DATE_AND_TIME ( #131, #325 ) ;
#198 = APPROVAL_PERSON_ORGANIZATION ( #98, #62, #305 ) ;
#199 = ORIENTED_EDGE ( 'NONE', *, *, #191, .T. ) ;
#200 = EDGE_CURVE ( 'NONE', #134, #168, #259, .T. ) ;
#201 = CIRCLE ( 'NONE', #346, 12.45244478710971800 ) ;
#202 = CARTESIAN_POINT ( 'NONE',  ( 1.524696279190739700E-015, 12.45008993819518200, -1.417256303411957400 ) ) ;
#203 = APPLICATION_PROTOCOL_DEFINITION ( 'international standard', 'config_control_design', 1994, #23 ) ;
#204 = ORIENTED_EDGE ( 'NONE', *, *, #66, .F. ) ;
#205 = CARTESIAN_POINT ( 'NONE',  ( 0.0000000000000000000, 0.0000000000000000000, -331.7827436965881100 ) ) ;
#206 = CIRCLE ( 'NONE', #51, 330.6000000000000200 ) ;
#207 = APPROVAL_ROLE ( '' ) ;
#208 = DIRECTION ( 'NONE',  ( -0.0000000000000000000, -0.0000000000000000000, 1.000000000000000000 ) ) ;
#209 = CARTESIAN_POINT ( 'NONE',  ( 12.45244478710971800, 1.540143049963222000E-015, 0.6196148429846239900 ) ) ;
#210 = PERSON_AND_ORGANIZATION ( #192, #74 ) ;
#211 = VERTEX_POINT ( 'NONE', #4 ) ;
#212 = CARTESIAN_POINT ( 'NONE',  ( 0.0000000000000000000, 0.0000000000000000000, -331.7827436965881100 ) ) ;
#213 = ORIENTED_EDGE ( 'NONE', *, *, #55, .F. ) ;
#214 = EDGE_CURVE ( 'NONE', #139, #181, #206, .T. ) ;
#215 = MANIFOLD_SOLID_BREP ( '4928-001-1-solid1', #312 ) ;
#216 = DIRECTION ( 'NONE',  ( 1.224646799147353000E-016, 1.000000000000000000, 0.0000000000000000000 ) ) ;
#217 = CARTESIAN_POINT ( 'NONE',  ( -12.45008993819446600, 1.539998857053895000E-015, -1.417256303411919200 ) ) ;
#218 = AXIS2_PLACEMENT_3D ( 'NONE', #365, #176, #24 ) ;
#219 = LINE ( 'NONE', #156, #196 ) ;
#220 = LINE ( 'NONE', #347, #354 ) ;
#221 = CARTESIAN_POINT ( 'NONE',  ( -12.45244478710971800, 0.0000000000000000000, 0.6196148429846239900 ) ) ;
#222 = DIRECTION ( 'NONE',  ( 0.0000000000000000000, 0.0000000000000000000, -1.000000000000000000 ) ) ;
#223 = CARTESIAN_POINT ( 'NONE',  ( 0.0000000000000000000, 0.0000000000000000000, 0.0000000000000000000 ) ) ;
#224 = PERSON_AND_ORGANIZATION ( #192, #74 ) ;
#225 = PERSON_AND_ORGANIZATION ( #192, #74 ) ;
#226 = ORIENTED_EDGE ( 'NONE', *, *, #247, .F. ) ;
#227 = VERTEX_POINT ( 'NONE', #209 ) ;
#228 = EDGE_CURVE ( 'NONE', #274, #139, #63, .T. ) ;
#229 = CARTESIAN_POINT ( 'NONE',  ( 0.0000000000000000000, 0.0000000000000000000, 0.6196148429846239900 ) ) ;
#230 = DIRECTION ( 'NONE',  ( 1.000000000000000000, 0.0000000000000000000, 0.0000000000000000000 ) ) ;
#231 = ORIENTED_EDGE ( 'NONE', *, *, #18, .T. ) ;
#232 = ADVANCED_FACE ( 'NONE', ( #186 ), #271, .T. ) ;
#233 = ORIENTED_EDGE ( 'NONE', *, *, #6, .F. ) ;
#234 = ORIENTED_EDGE ( 'NONE', *, *, #6, .T. ) ;
#235 = ORIENTED_EDGE ( 'NONE', *, *, #350, .F. ) ;
#236 = EDGE_CURVE ( 'NONE', #211, #134, #219, .T. ) ;
#237 = DIRECTION ( 'NONE',  ( -1.000000000000000000, 0.0000000000000000000, 0.0000000000000000000 ) ) ;
#238 = AXIS2_PLACEMENT_3D ( 'NONE', #21, #237, #67 ) ;
#239 = ORIENTED_EDGE ( 'NONE', *, *, #279, .F. ) ;
#240 = CARTESIAN_POINT ( 'NONE',  ( 0.0000000000000000000, 12.45244478710976200, 0.6196148429846205500 ) ) ;
#241 = APPROVAL_ROLE ( '' ) ;
#242 = CARTESIAN_POINT ( 'NONE',  ( 0.0000000000000000000, 0.0000000000000000000, 1.417256303411937400 ) ) ;
#243 = LOCAL_TIME ( 11, 20, 54.00000000000000000, #252 ) ;
#244 = ORIENTED_EDGE ( 'NONE', *, *, #214, .T. ) ;
#245 = ORIENTED_EDGE ( 'NONE', *, *, #200, .F. ) ;
#246 = DIRECTION ( 'NONE',  ( 0.0000000000000000000, 0.0000000000000000000, 1.000000000000000000 ) ) ;
#247 = EDGE_CURVE ( 'NONE', #108, #274, #5, .T. ) ;
#248 = CARTESIAN_POINT ( 'NONE',  ( -12.45244478710970900, 0.0000000000000000000, 0.6196148429846239900 ) ) ;
#249 = DIRECTION ( 'NONE',  ( -1.000000000000000000, 0.0000000000000000000, 0.0000000000000000000 ) ) ;
#250 = DIRECTION ( 'NONE',  ( -0.7205605467359367200, 8.824321671520316300E-017, 0.6933920236688678700 ) ) ;
#251 = LINE ( 'NONE', #56, #145 ) ;
#252 = COORDINATED_UNIVERSAL_TIME_OFFSET ( 5, 0, .BEHIND. ) ;
#253 = LOCAL_TIME ( 11, 20, 54.00000000000000000, #303 ) ;
#254 = DIRECTION ( 'NONE',  ( 0.0000000000000000000, 0.0000000000000000000, -1.000000000000000000 ) ) ;
#255 = ORIENTED_EDGE ( 'NONE', *, *, #228, .F. ) ;
#256 = ORIENTED_EDGE ( 'NONE', *, *, #166, .F. ) ;
#257 = EDGE_CURVE ( 'NONE', #359, #168, #251, .T. ) ;
#258 = DIRECTION ( 'NONE',  ( 0.0000000000000000000, 0.0000000000000000000, -1.000000000000000000 ) ) ;
#259 = CIRCLE ( 'NONE', #33, 12.69999999999999900 ) ;
#260 = AXIS2_PLACEMENT_3D ( 'NONE', #68, #269, #95 ) ;
#261 = CIRCLE ( 'NONE', #118, 12.69999999999999900 ) ;
#262 = ORIENTED_EDGE ( 'NONE', *, *, #36, .F. ) ;
#263 = ORIENTED_EDGE ( 'NONE', *, *, #257, .F. ) ;
#264 = CIRCLE ( 'NONE', #119, 12.45244478710971800 ) ;
#265 = EDGE_CURVE ( 'NONE', #211, #359, #261, .T. ) ;
#266 = EDGE_LOOP ( 'NONE', ( #255, #117, #233, #1, #213 ) ) ;
#267 = DIRECTION ( 'NONE',  ( 1.000000000000000000, 0.0000000000000000000, 0.0000000000000000000 ) ) ;
#268 = CARTESIAN_POINT ( 'NONE',  ( 0.0000000000000000000, 0.0000000000000000000, 0.6196148429846239900 ) ) ;
#269 = DIRECTION ( 'NONE',  ( -0.0000000000000000000, -0.0000000000000000000, 1.000000000000000000 ) ) ;
#270 = DATE_TIME_ROLE ( 'creation_date' ) ;
#271 = CONICAL_SURFACE ( 'NONE', #79, 12.45244478710970900, 0.7201516714862458100 ) ;
#272 = LOCAL_TIME ( 11, 20, 54.00000000000000000, #316 ) ;
#273 = EDGE_LOOP ( 'NONE', ( #10, #76, #244, #275 ) ) ;
#274 = VERTEX_POINT ( 'NONE', #217 ) ;
#275 = ORIENTED_EDGE ( 'NONE', *, *, #191, .F. ) ;
#276 = SPHERICAL_SURFACE ( 'NONE', #157, 97.60000000000000900 ) ;
#277 = AXIS2_PLACEMENT_3D ( 'NONE', #223, #121, #333 ) ;
#278 = CARTESIAN_POINT ( 'NONE',  ( -1.524984665009311600E-015, -12.45244478710976200, 0.6196148429846205500 ) ) ;
#279 = EDGE_CURVE ( 'NONE', #49, #134, #307, .T. ) ;
#280 = CARTESIAN_POINT ( 'NONE',  ( 0.0000000000000000000, 0.0000000000000000000, -1.417256303411919200 ) ) ;
#281 = ORIENTED_EDGE ( 'NONE', *, *, #292, .T. ) ;
#282 = AXIS2_PLACEMENT_3D ( 'NONE', #46, #120, #267 ) ;
#283 = DATE_AND_TIME ( #290, #272 ) ;
#284 = VECTOR ( 'NONE', #250, 1000.000000000000100 ) ;
#285 = DIRECTION ( 'NONE',  ( -0.0000000000000000000, -0.0000000000000000000, 1.000000000000000000 ) ) ;
#286 = DIRECTION ( 'NONE',  ( -1.000000000000000000, 0.0000000000000000000, 0.0000000000000000000 ) ) ;
#287 = ADVANCED_BREP_SHAPE_REPRESENTATION ( '4928-E0W', ( #215, #277 ), #190 ) ;
#288 = EDGE_LOOP ( 'NONE', ( #262, #295, #326, #45, #39 ) ) ;
#289 = DESIGN_CONTEXT ( 'detailed design', #23, 'design' ) ;
#290 = CALENDAR_DATE ( 2015, 13, 7 ) ;
#291 = EDGE_LOOP ( 'NONE', ( #35, #50, #231, #163 ) ) ;
#292 = EDGE_CURVE ( 'NONE', #168, #134, #304, .T. ) ;
#293 = EDGE_LOOP ( 'NONE', ( #298, #367, #167, #281 ) ) ;
#294 = LINE ( 'NONE', #42, #332 ) ;
#295 = ORIENTED_EDGE ( 'NONE', *, *, #183, .F. ) ;
#296 = ADVANCED_FACE ( 'NONE', ( #152 ), #353, .T. ) ;
#297 = CC_DESIGN_PERSON_AND_ORGANIZATION_ASSIGNMENT ( #81, #175, ( #358 ) ) ;
#298 = ORIENTED_EDGE ( 'NONE', *, *, #236, .F. ) ;
#299 = FACE_OUTER_BOUND ( 'NONE', #291, .T. ) ;
#300 = CARTESIAN_POINT ( 'NONE',  ( 0.0000000000000000000, 0.0000000000000000000, 0.6196148429846239900 ) ) ;
#301 = ORIENTED_EDGE ( 'NONE', *, *, #350, .T. ) ;
#302 = AXIS2_PLACEMENT_3D ( 'NONE', #124, #335, #149 ) ;
#303 = COORDINATED_UNIVERSAL_TIME_OFFSET ( 5, 0, .BEHIND. ) ;
#304 = CIRCLE ( 'NONE', #135, 12.69999999999999900 ) ;
#305 = APPROVAL_ROLE ( '' ) ;
#306 = CARTESIAN_POINT ( 'NONE',  ( 0.0000000000000000000, -2.024341158990574700E-014, -1.182743696588106600 ) ) ;
#307 = LINE ( 'NONE', #248, #153 ) ;
#308 = FACE_OUTER_BOUND ( 'NONE', #351, .T. ) ;
#309 = DIRECTION ( 'NONE',  ( 0.0000000000000000000, 0.0000000000000000000, -1.000000000000000000 ) ) ;
#310 = EDGE_CURVE ( 'NONE', #274, #211, #150, .T. ) ;
#311 = DIRECTION ( 'NONE',  ( -1.000000000000000000, 0.0000000000000000000, 0.0000000000000000000 ) ) ;
#312 = CLOSED_SHELL ( 'NONE', ( #89, #296, #165, #113, #92, #29, #182, #170, #13, #232 ) ) ;
#313 = DIRECTION ( 'NONE',  ( 0.7205605467359367200, 0.0000000000000000000, 0.6933920236688678700 ) ) ;
#314 = CALENDAR_DATE ( 2015, 13, 7 ) ;
#315 =( NAMED_UNIT ( * ) SI_UNIT ( $, .STERADIAN. ) SOLID_ANGLE_UNIT ( ) );
#316 = COORDINATED_UNIVERSAL_TIME_OFFSET ( 5, 0, .BEHIND. ) ;
#317 = CIRCLE ( 'NONE', #16, 330.6000000000000200 ) ;
#318 = PRODUCT_DEFINITION ( 'UNKNOWN', '', #41, #289 ) ;
#319 = FACE_OUTER_BOUND ( 'NONE', #105, .T. ) ;
#320 = SPHERICAL_SURFACE ( 'NONE', #322, 330.6000000000000200 ) ;
#321 = LOCAL_TIME ( 11, 20, 54.00000000000000000, #87 ) ;
#322 = AXIS2_PLACEMENT_3D ( 'NONE', #205, #174, #48 ) ;
#323 = ORIENTED_EDGE ( 'NONE', *, *, #141, .T. ) ;
#324 = AXIS2_PLACEMENT_3D ( 'NONE', #2, #147, #178 ) ;
#325 = LOCAL_TIME ( 11, 20, 54.00000000000000000, #137 ) ;
#326 = ORIENTED_EDGE ( 'NONE', *, *, #127, .F. ) ;
#327 = ORIENTED_EDGE ( 'NONE', *, *, #200, .T. ) ;
#328 = FACE_OUTER_BOUND ( 'NONE', #146, .T. ) ;
#329 = DIRECTION ( 'NONE',  ( -0.0000000000000000000, -0.0000000000000000000, 1.000000000000000000 ) ) ;
#330 = EDGE_CURVE ( 'NONE', #125, #359, #220, .T. ) ;
#331 = DIRECTION ( 'NONE',  ( 0.0000000000000000000, 1.000000000000000000, 0.0000000000000000000 ) ) ;
#332 = VECTOR ( 'NONE', #85, 1000.000000000000000 ) ;
#333 = DIRECTION ( 'NONE',  ( 1.000000000000000000, 0.0000000000000000000, 0.0000000000000000000 ) ) ;
#334 = PERSON_AND_ORGANIZATION_ROLE ( 'design_supplier' ) ;
#335 = DIRECTION ( 'NONE',  ( 1.000000000000000000, 0.0000000000000000000, 0.0000000000000000000 ) ) ;
#336 = CONICAL_SURFACE ( 'NONE', #103, 12.69999999999999900, 0.8046103921746274900 ) ;
#337 = CIRCLE ( 'NONE', #260, 12.45244478710971800 ) ;
#338 = APPROVAL ( #47, 'UNSPECIFIED' ) ;
#339 = DIRECTION ( 'NONE',  ( -0.0000000000000000000, -0.0000000000000000000, 1.000000000000000000 ) ) ;
#340 = PERSON_AND_ORGANIZATION ( #192, #74 ) ;
#341 = DIRECTION ( 'NONE',  ( -0.0000000000000000000, -0.0000000000000000000, 1.000000000000000000 ) ) ;
#342 = CYLINDRICAL_SURFACE ( 'NONE', #282, 12.69999999999999900 ) ;
#343 = CC_DESIGN_DATE_AND_TIME_ASSIGNMENT ( #70, #177, ( #128 ) ) ;
#344 = DIRECTION ( 'NONE',  ( 0.0000000000000000000, 0.0000000000000000000, -1.000000000000000000 ) ) ;
#345 = APPROVAL ( #25, 'UNSPECIFIED' ) ;
#346 = AXIS2_PLACEMENT_3D ( 'NONE', #126, #339, #155 ) ;
#347 = CARTESIAN_POINT ( 'NONE',  ( 12.69999999999999900, 0.0000000000000000000, -1.176769026838810000 ) ) ;
#348 = CONICAL_SURFACE ( 'NONE', #194, 12.45244478710970900, 0.7201516714862458100 ) ;
#349 = APPLICATION_CONTEXT ( 'configuration controlled 3d designs of mechanical parts and assemblies' ) ;
#350 = EDGE_CURVE ( 'NONE', #125, #108, #58, .T. ) ;
#351 = EDGE_LOOP ( 'NONE', ( #109, #226, #235, #189, #116 ) ) ;
#352 = CIRCLE ( 'NONE', #136, 12.45008993819446600 ) ;
#353 = CONICAL_SURFACE ( 'NONE', #151, 12.69999999999999900, 0.8046103921746274900 ) ;
#354 = VECTOR ( 'NONE', #313, 1000.000000000000100 ) ;
#355 = EDGE_LOOP ( 'NONE', ( #234, #12, #327, #263 ) ) ;
#356 = SPHERICAL_SURFACE ( 'NONE', #238, 97.60000000000000900 ) ;
#357 = CC_DESIGN_APPROVAL ( #338, ( #318 ) ) ;
#358 = PRODUCT ( '4928-E0W', '4928-E0W', '', ( #361 ) ) ;
#359 = VERTEX_POINT ( 'NONE', #9 ) ;
#360 = CARTESIAN_POINT ( 'NONE',  ( -12.69999999999999900, 1.555301434917138400E-015, 0.3374479948619821300 ) ) ;
#361 = MECHANICAL_CONTEXT ( 'NONE', #349, 'mechanical' ) ;
#362 = APPROVAL_DATE_TIME ( #283, #62 ) ;
#363 = CC_DESIGN_APPROVAL ( #345, ( #128 ) ) ;
#364 = PERSON_AND_ORGANIZATION ( #192, #74 ) ;
#365 = CARTESIAN_POINT ( 'NONE',  ( 0.0000000000000000000, 0.0000000000000000000, -96.18274369658807600 ) ) ;
#366 = PERSON_AND_ORGANIZATION_ROLE ( 'classification_officer' ) ;
#367 = ORIENTED_EDGE ( 'NONE', *, *, #265, .T. ) ;
ENDSEC;
END-ISO-10303-21;
