ISO-10303-21;
HEADER;
FILE_DESCRIPTION (( 'STEP AP203' ),
    '1' );
FILE_NAME ('47542_Default.step',
    '2017-04-12T17:44:42',
    ( '' ),
    ( '' ),
    'SwSTEP 2.0',
    'SolidWorks 2016',
    '' );
FILE_SCHEMA (( 'CONFIG_CONTROL_DESIGN' ));
ENDSEC;

DATA;
#1 = DIRECTION ( 'NONE',  ( -0.0000000000000000000, -0.0000000000000000000, -1.000000000000000000 ) ) ;
#2 = ORIENTED_EDGE ( 'NONE', *, *, #35, .F. ) ;
#3 = FACE_OUTER_BOUND ( 'NONE', #43, .T. ) ;
#4 = LOCAL_TIME ( 13, 44, 42.00000000000000000, #104 ) ;
#5 = CC_DESIGN_PERSON_AND_ORGANIZATION_ASSIGNMENT ( #31, #168, ( #37 ) ) ;
#6 = CALENDAR_DATE ( 2017, 12, 4 ) ;
#7 = ADVANCED_FACE ( 'NONE', ( #102 ), #93, .F. ) ;
#8 =( GEOMETRIC_REPRESENTATION_CONTEXT ( 3 ) GLOBAL_UNCERTAINTY_ASSIGNED_CONTEXT ( ( #110 ) ) GLOBAL_UNIT_ASSIGNED_CONTEXT ( ( #70, #141, #80 ) ) REPRESENTATION_CONTEXT ( 'NONE', 'WORKASPACE' ) );
#9 = DIRECTION ( 'NONE',  ( 1.000000000000000000, 0.0000000000000000000, 0.0000000000000000000 ) ) ;
#10 = ADVANCED_FACE ( 'NONE', ( #3 ), #34, .T. ) ;
#11 = DIRECTION ( 'NONE',  ( 1.000000000000000000, 0.0000000000000000000, 0.0000000000000000000 ) ) ;
#12 = PERSON_AND_ORGANIZATION ( #32, #89 ) ;
#13 = CARTESIAN_POINT ( 'NONE',  ( 0.0000000000000000000, 0.0000000000000000000, 1.000000000000000000 ) ) ;
#14 = CYLINDRICAL_SURFACE ( 'NONE', #165, 37.50000000000000700 ) ;
#15 = APPROVAL_STATUS ( 'not_yet_approved' ) ;
#16 = EDGE_CURVE ( 'NONE', #103, #126, #151, .T. ) ;
#17 = ORIENTED_EDGE ( 'NONE', *, *, #33, .F. ) ;
#18 = DIRECTION ( 'NONE',  ( 0.0000000000000000000, 0.0000000000000000000, 1.000000000000000000 ) ) ;
#19 = COORDINATED_UNIVERSAL_TIME_OFFSET ( 5, 0, .BEHIND. ) ;
#20 = CC_DESIGN_PERSON_AND_ORGANIZATION_ASSIGNMENT ( #135, #159, ( #37 ) ) ;
#21 = LOCAL_TIME ( 13, 44, 42.00000000000000000, #19 ) ;
#22 = PERSON_AND_ORGANIZATION_ROLE ( 'classification_officer' ) ;
#23 = CARTESIAN_POINT ( 'NONE',  ( 0.0000000000000000000, 0.0000000000000000000, 1.000000000000000000 ) ) ;
#24 = PRODUCT_DEFINITION ( 'UNKNOWN', '', #37, #156 ) ;
#25 = ORIENTED_EDGE ( 'NONE', *, *, #142, .T. ) ;
#26 = CLOSED_SHELL ( 'NONE', ( #170, #10, #150, #7 ) ) ;
#27 = CC_DESIGN_DATE_AND_TIME_ASSIGNMENT ( #97, #164, ( #24 ) ) ;
#28 = CARTESIAN_POINT ( 'NONE',  ( 37.50000000000000700, 4.592425496802575200E-015, 1.000000000000000000 ) ) ;
#29 = LOCAL_TIME ( 13, 44, 42.00000000000000000, #114 ) ;
#30 = AXIS2_PLACEMENT_3D ( 'NONE', #13, #71, #138 ) ;
#31 = PERSON_AND_ORGANIZATION ( #32, #89 ) ;
#32 = PERSON ( 'UNSPECIFIED', 'UNSPECIFIED', 'UNSPECIFIED', ('UNSPECIFIED'), ('UNSPECIFIED'), ('UNSPECIFIED') ) ;
#33 = EDGE_CURVE ( 'NONE', #66, #100, #131, .T. ) ;
#34 = CYLINDRICAL_SURFACE ( 'NONE', #130, 37.50000000000000700 ) ;
#35 = EDGE_CURVE ( 'NONE', #126, #103, #60, .T. ) ;
#36 = CC_DESIGN_DATE_AND_TIME_ASSIGNMENT ( #128, #45, ( #84 ) ) ;
#37 = PRODUCT_DEFINITION_FORMATION_WITH_SPECIFIED_SOURCE ( 'ANY', '', #99, .NOT_KNOWN. ) ;
#38 = DIRECTION ( 'NONE',  ( 0.0000000000000000000, 0.0000000000000000000, 1.000000000000000000 ) ) ;
#39 = EDGE_LOOP ( 'NONE', ( #53, #2 ) ) ;
#40 = CC_DESIGN_PERSON_AND_ORGANIZATION_ASSIGNMENT ( #166, #22, ( #84 ) ) ;
#41 = DATE_AND_TIME ( #122, #163 ) ;
#42 = CARTESIAN_POINT ( 'NONE',  ( 37.50000000000000700, 4.592425496802575200E-015, 1.000000000000000000 ) ) ;
#43 = EDGE_LOOP ( 'NONE', ( #62, #147, #25, #79 ) ) ;
#44 = CALENDAR_DATE ( 2017, 12, 4 ) ;
#45 = DATE_TIME_ROLE ( 'classification_date' ) ;
#46 = ORIENTED_EDGE ( 'NONE', *, *, #52, .T. ) ;
#47 = AXIS2_PLACEMENT_3D ( 'NONE', #107, #38, #69 ) ;
#48 = APPROVAL_ROLE ( '' ) ;
#49 = AXIS2_PLACEMENT_3D ( 'NONE', #76, #145, #175 ) ;
#50 = VECTOR ( 'NONE', #174, 1000.000000000000000 ) ;
#51 = CARTESIAN_POINT ( 'NONE',  ( 0.0000000000000000000, 0.0000000000000000000, 1.000000000000000000 ) ) ;
#52 = EDGE_CURVE ( 'NONE', #66, #126, #143, .T. ) ;
#53 = ORIENTED_EDGE ( 'NONE', *, *, #16, .F. ) ;
#54 = PERSON_AND_ORGANIZATION ( #32, #89 ) ;
#55 = DIRECTION ( 'NONE',  ( 1.000000000000000000, 0.0000000000000000000, -0.0000000000000000000 ) ) ;
#56 = CARTESIAN_POINT ( 'NONE',  ( 37.50000000000000700, 4.592425496802575200E-015, -1.000000000000000000 ) ) ;
#57 = DIRECTION ( 'NONE',  ( -0.0000000000000000000, -0.0000000000000000000, -1.000000000000000000 ) ) ;
#58 = PERSON_AND_ORGANIZATION_ROLE ( 'design_owner' ) ;
#59 = CC_DESIGN_APPROVAL ( #134, ( #24 ) ) ;
#60 = CIRCLE ( 'NONE', #73, 37.50000000000000700 ) ;
#61 = CC_DESIGN_APPROVAL ( #136, ( #37 ) ) ;
#62 = ORIENTED_EDGE ( 'NONE', *, *, #52, .F. ) ;
#63 = APPROVAL_PERSON_ORGANIZATION ( #54, #134, #98 ) ;
#64 = CC_DESIGN_APPROVAL ( #154, ( #84 ) ) ;
#65 = APPROVAL_DATE_TIME ( #95, #154 ) ;
#66 = VERTEX_POINT ( 'NONE', #42 ) ;
#67 = CARTESIAN_POINT ( 'NONE',  ( 0.0000000000000000000, 0.0000000000000000000, -1.000000000000000000 ) ) ;
#68 = APPROVAL_PERSON_ORGANIZATION ( #101, #136, #108 ) ;
#69 = DIRECTION ( 'NONE',  ( 1.000000000000000000, 0.0000000000000000000, -0.0000000000000000000 ) ) ;
#70 =( LENGTH_UNIT ( ) NAMED_UNIT ( * ) SI_UNIT ( .MILLI., .METRE. ) );
#71 = DIRECTION ( 'NONE',  ( 0.0000000000000000000, 0.0000000000000000000, 1.000000000000000000 ) ) ;
#72 = CIRCLE ( 'NONE', #116, 37.50000000000000700 ) ;
#73 = AXIS2_PLACEMENT_3D ( 'NONE', #119, #82, #11 ) ;
#74 = DATE_AND_TIME ( #44, #21 ) ;
#75 = PERSON_AND_ORGANIZATION ( #32, #89 ) ;
#76 = CARTESIAN_POINT ( 'NONE',  ( 0.0000000000000000000, 0.0000000000000000000, 0.0000000000000000000 ) ) ;
#77 = CC_DESIGN_SECURITY_CLASSIFICATION ( #84, ( #37 ) ) ;
#78 = MANIFOLD_SOLID_BREP ( 'Boss-Extrude1', #26 ) ;
#79 = ORIENTED_EDGE ( 'NONE', *, *, #16, .T. ) ;
#80 =( NAMED_UNIT ( * ) SI_UNIT ( $, .STERADIAN. ) SOLID_ANGLE_UNIT ( ) );
#81 = SHAPE_DEFINITION_REPRESENTATION ( #120, #153 ) ;
#82 = DIRECTION ( 'NONE',  ( 0.0000000000000000000, 0.0000000000000000000, 1.000000000000000000 ) ) ;
#83 = COORDINATED_UNIVERSAL_TIME_OFFSET ( 5, 0, .BEHIND. ) ;
#84 = SECURITY_CLASSIFICATION ( '', '', #105 ) ;
#85 = CARTESIAN_POINT ( 'NONE',  ( 0.0000000000000000000, 0.0000000000000000000, -1.000000000000000000 ) ) ;
#86 = APPROVAL_PERSON_ORGANIZATION ( #75, #154, #48 ) ;
#87 = CALENDAR_DATE ( 2017, 12, 4 ) ;
#88 = MECHANICAL_CONTEXT ( 'NONE', #167, 'mechanical' ) ;
#89 = ORGANIZATION ( 'UNSPECIFIED', 'UNSPECIFIED', '' ) ;
#90 = DIRECTION ( 'NONE',  ( -0.0000000000000000000, -0.0000000000000000000, -1.000000000000000000 ) ) ;
#91 = ORIENTED_EDGE ( 'NONE', *, *, #96, .T. ) ;
#92 = COORDINATED_UNIVERSAL_TIME_OFFSET ( 5, 0, .BEHIND. ) ;
#93 = PLANE ( 'NONE',  #161 ) ;
#94 = AXIS2_PLACEMENT_3D ( 'NONE', #85, #162, #9 ) ;
#95 = DATE_AND_TIME ( #87, #171 ) ;
#96 = EDGE_CURVE ( 'NONE', #100, #66, #72, .T. ) ;
#97 = DATE_AND_TIME ( #6, #4 ) ;
#98 = APPROVAL_ROLE ( '' ) ;
#99 = PRODUCT ( '47542_Default', '47542_Default', '', ( #88 ) ) ;
#100 = VERTEX_POINT ( 'NONE', #123 ) ;
#101 = PERSON_AND_ORGANIZATION ( #32, #89 ) ;
#102 = FACE_OUTER_BOUND ( 'NONE', #39, .T. ) ;
#103 = VERTEX_POINT ( 'NONE', #169 ) ;
#104 = COORDINATED_UNIVERSAL_TIME_OFFSET ( 5, 0, .BEHIND. ) ;
#105 = SECURITY_CLASSIFICATION_LEVEL ( 'unclassified' ) ;
#106 = APPLICATION_PROTOCOL_DEFINITION ( 'international standard', 'config_control_design', 1994, #167 ) ;
#107 = CARTESIAN_POINT ( 'NONE',  ( 0.0000000000000000000, 0.0000000000000000000, 1.000000000000000000 ) ) ;
#108 = APPROVAL_ROLE ( '' ) ;
#109 = CC_DESIGN_PERSON_AND_ORGANIZATION_ASSIGNMENT ( #12, #157, ( #24 ) ) ;
#110 = UNCERTAINTY_MEASURE_WITH_UNIT (LENGTH_MEASURE( 1.000000000000000100E-005 ), #70, 'distance_accuracy_value', 'NONE');
#111 = ORIENTED_EDGE ( 'NONE', *, *, #35, .T. ) ;
#112 = VECTOR ( 'NONE', #90, 1000.000000000000000 ) ;
#113 = PLANE ( 'NONE',  #47 ) ;
#114 = COORDINATED_UNIVERSAL_TIME_OFFSET ( 5, 0, .BEHIND. ) ;
#115 = PERSON_AND_ORGANIZATION ( #32, #89 ) ;
#116 = AXIS2_PLACEMENT_3D ( 'NONE', #51, #140, #155 ) ;
#117 = CALENDAR_DATE ( 2017, 12, 4 ) ;
#118 = FACE_OUTER_BOUND ( 'NONE', #158, .T. ) ;
#119 = CARTESIAN_POINT ( 'NONE',  ( 0.0000000000000000000, 0.0000000000000000000, -1.000000000000000000 ) ) ;
#120 = PRODUCT_DEFINITION_SHAPE ( 'NONE', 'NONE',  #24 ) ;
#121 = DIRECTION ( 'NONE',  ( -1.000000000000000000, 0.0000000000000000000, 0.0000000000000000000 ) ) ;
#122 = CALENDAR_DATE ( 2017, 12, 4 ) ;
#123 = CARTESIAN_POINT ( 'NONE',  ( -37.50000000000000700, 0.0000000000000000000, 1.000000000000000000 ) ) ;
#124 = CC_DESIGN_PERSON_AND_ORGANIZATION_ASSIGNMENT ( #115, #58, ( #99 ) ) ;
#125 = PRODUCT_RELATED_PRODUCT_CATEGORY ( 'detail', '', ( #99 ) ) ;
#126 = VERTEX_POINT ( 'NONE', #56 ) ;
#127 = EDGE_LOOP ( 'NONE', ( #17, #46, #111, #137 ) ) ;
#128 = DATE_AND_TIME ( #117, #29 ) ;
#129 = APPROVAL_STATUS ( 'not_yet_approved' ) ;
#130 = AXIS2_PLACEMENT_3D ( 'NONE', #152, #1, #121 ) ;
#131 = CIRCLE ( 'NONE', #30, 37.50000000000000700 ) ;
#132 = ORIENTED_EDGE ( 'NONE', *, *, #33, .T. ) ;
#133 = FACE_OUTER_BOUND ( 'NONE', #127, .T. ) ;
#134 = APPROVAL ( #129, 'UNSPECIFIED' ) ;
#135 = PERSON_AND_ORGANIZATION ( #32, #89 ) ;
#136 = APPROVAL ( #15, 'UNSPECIFIED' ) ;
#137 = ORIENTED_EDGE ( 'NONE', *, *, #142, .F. ) ;
#138 = DIRECTION ( 'NONE',  ( 1.000000000000000000, 0.0000000000000000000, 0.0000000000000000000 ) ) ;
#139 = APPROVAL_DATE_TIME ( #74, #134 ) ;
#140 = DIRECTION ( 'NONE',  ( 0.0000000000000000000, 0.0000000000000000000, 1.000000000000000000 ) ) ;
#141 =( NAMED_UNIT ( * ) PLANE_ANGLE_UNIT ( ) SI_UNIT ( $, .RADIAN. ) );
#142 = EDGE_CURVE ( 'NONE', #100, #103, #149, .T. ) ;
#143 = LINE ( 'NONE', #28, #112 ) ;
#144 = APPLICATION_CONTEXT ( 'configuration controlled 3d designs of mechanical parts and assemblies' ) ;
#145 = DIRECTION ( 'NONE',  ( 0.0000000000000000000, 0.0000000000000000000, 1.000000000000000000 ) ) ;
#146 = APPLICATION_PROTOCOL_DEFINITION ( 'international standard', 'config_control_design', 1994, #144 ) ;
#147 = ORIENTED_EDGE ( 'NONE', *, *, #96, .F. ) ;
#148 = APPROVAL_STATUS ( 'not_yet_approved' ) ;
#149 = LINE ( 'NONE', #160, #50 ) ;
#150 = ADVANCED_FACE ( 'NONE', ( #118 ), #113, .T. ) ;
#151 = CIRCLE ( 'NONE', #94, 37.50000000000000700 ) ;
#152 = CARTESIAN_POINT ( 'NONE',  ( 0.0000000000000000000, 0.0000000000000000000, 1.000000000000000000 ) ) ;
#153 = ADVANCED_BREP_SHAPE_REPRESENTATION ( '47542_Default', ( #78, #49 ), #8 ) ;
#154 = APPROVAL ( #148, 'UNSPECIFIED' ) ;
#155 = DIRECTION ( 'NONE',  ( 1.000000000000000000, 0.0000000000000000000, 0.0000000000000000000 ) ) ;
#156 = DESIGN_CONTEXT ( 'detailed design', #144, 'design' ) ;
#157 = PERSON_AND_ORGANIZATION_ROLE ( 'creator' ) ;
#158 = EDGE_LOOP ( 'NONE', ( #91, #132 ) ) ;
#159 = PERSON_AND_ORGANIZATION_ROLE ( 'creator' ) ;
#160 = CARTESIAN_POINT ( 'NONE',  ( -37.50000000000000700, 0.0000000000000000000, 1.000000000000000000 ) ) ;
#161 = AXIS2_PLACEMENT_3D ( 'NONE', #67, #18, #55 ) ;
#162 = DIRECTION ( 'NONE',  ( 0.0000000000000000000, 0.0000000000000000000, 1.000000000000000000 ) ) ;
#163 = LOCAL_TIME ( 13, 44, 42.00000000000000000, #92 ) ;
#164 = DATE_TIME_ROLE ( 'creation_date' ) ;
#165 = AXIS2_PLACEMENT_3D ( 'NONE', #23, #57, #172 ) ;
#166 = PERSON_AND_ORGANIZATION ( #32, #89 ) ;
#167 = APPLICATION_CONTEXT ( 'configuration controlled 3d designs of mechanical parts and assemblies' ) ;
#168 = PERSON_AND_ORGANIZATION_ROLE ( 'design_supplier' ) ;
#169 = CARTESIAN_POINT ( 'NONE',  ( -37.50000000000000700, 0.0000000000000000000, -1.000000000000000000 ) ) ;
#170 = ADVANCED_FACE ( 'NONE', ( #133 ), #14, .T. ) ;
#171 = LOCAL_TIME ( 13, 44, 42.00000000000000000, #83 ) ;
#172 = DIRECTION ( 'NONE',  ( -1.000000000000000000, 0.0000000000000000000, 0.0000000000000000000 ) ) ;
#173 = APPROVAL_DATE_TIME ( #41, #136 ) ;
#174 = DIRECTION ( 'NONE',  ( -0.0000000000000000000, -0.0000000000000000000, -1.000000000000000000 ) ) ;
#175 = DIRECTION ( 'NONE',  ( 1.000000000000000000, 0.0000000000000000000, 0.0000000000000000000 ) ) ;
ENDSEC;
END-ISO-10303-21;
