ISO-10303-21;
HEADER;
FILE_DESCRIPTION (( 'STEP AP203' ),
    '1' );
FILE_NAME ('Web Model 68157_21001.step',
    '2022-03-15T19:22:52',
    ( '' ),
    ( '' ),
    'SwSTEP 2.0',
    'SolidWorks 2021',
    '' );
FILE_SCHEMA (( 'CONFIG_CONTROL_DESIGN' ));
ENDSEC;

DATA;
#1 = DATE_AND_TIME ( #140, #70 ) ;
#2 =( GEOMETRIC_REPRESENTATION_CONTEXT ( 3 ) GLOBAL_UNCERTAINTY_ASSIGNED_CONTEXT ( ( #132 ) ) GLOBAL_UNIT_ASSIGNED_CONTEXT ( ( #17, #63, #33 ) ) REPRESENTATION_CONTEXT ( 'NONE', 'WORKASPACE' ) );
#3 = ORIENTED_EDGE ( 'NONE', *, *, #144, .F. ) ;
#4 = EDGE_CURVE ( 'NONE', #28, #102, #115, .T. ) ;
#5 = CC_DESIGN_DATE_AND_TIME_ASSIGNMENT ( #1, #35, ( #169 ) ) ;
#6 = DIRECTION ( 'NONE',  ( 1.000000000000000000, 0.000000000000000000, 0.000000000000000000 ) ) ;
#7 = PERSON_AND_ORGANIZATION_ROLE ( 'design_owner' ) ;
#8 = FACE_OUTER_BOUND ( 'NONE', #116, .T. ) ;
#9 = DATE_TIME_ROLE ( 'classification_date' ) ;
#10 = AXIS2_PLACEMENT_3D ( 'NONE', #57, #127, #101 ) ;
#11 = APPROVAL_ROLE ( '' ) ;
#12 = FACE_OUTER_BOUND ( 'NONE', #85, .T. ) ;
#13 = CARTESIAN_POINT ( 'NONE',  ( -6.349999999999999645, 0.000000000000000000, 1.000000000000000000 ) ) ;
#14 = EDGE_LOOP ( 'NONE', ( #3, #125, #147, #74 ) ) ;
#15 = DIRECTION ( 'NONE',  ( 0.000000000000000000, 0.000000000000000000, 1.000000000000000000 ) ) ;
#16 = ADVANCED_FACE ( 'NONE', ( #12 ), #40, .F. ) ;
#17 =( LENGTH_UNIT ( ) NAMED_UNIT ( * ) SI_UNIT ( .MILLI., .METRE. ) );
#18 = SECURITY_CLASSIFICATION ( '', '', #53 ) ;
#19 = AXIS2_PLACEMENT_3D ( 'NONE', #163, #15, #118 ) ;
#20 = PERSON_AND_ORGANIZATION ( #174, #98 ) ;
#21 = PERSON_AND_ORGANIZATION ( #174, #98 ) ;
#22 = LOCAL_TIME ( 15, 22, 52.00000000000000000, #167 ) ;
#23 = COORDINATED_UNIVERSAL_TIME_OFFSET ( 5, 0, .BEHIND. ) ;
#24 = DATE_AND_TIME ( #136, #109 ) ;
#25 = DIRECTION ( 'NONE',  ( -0.000000000000000000, -0.000000000000000000, -1.000000000000000000 ) ) ;
#26 = AXIS2_PLACEMENT_3D ( 'NONE', #121, #117, #93 ) ;
#27 = DIRECTION ( 'NONE',  ( 1.000000000000000000, 0.000000000000000000, -0.000000000000000000 ) ) ;
#28 = VERTEX_POINT ( 'NONE', #145 ) ;
#29 = MECHANICAL_CONTEXT ( 'NONE', #138, 'mechanical' ) ;
#30 = DIRECTION ( 'NONE',  ( 0.000000000000000000, 0.000000000000000000, 1.000000000000000000 ) ) ;
#31 = DIRECTION ( 'NONE',  ( -0.000000000000000000, -0.000000000000000000, -1.000000000000000000 ) ) ;
#32 = COORDINATED_UNIVERSAL_TIME_OFFSET ( 5, 0, .BEHIND. ) ;
#33 =( NAMED_UNIT ( * ) SI_UNIT ( $, .STERADIAN. ) SOLID_ANGLE_UNIT ( ) );
#34 = CALENDAR_DATE ( 2022, 15, 3 ) ;
#35 = DATE_TIME_ROLE ( 'creation_date' ) ;
#36 = EDGE_CURVE ( 'NONE', #71, #28, #155, .T. ) ;
#37 = APPROVAL_DATE_TIME ( #66, #152 ) ;
#38 = CLOSED_SHELL ( 'NONE', ( #48, #50, #112, #16 ) ) ;
#39 = CC_DESIGN_APPROVAL ( #152, ( #18 ) ) ;
#40 = PLANE ( 'NONE',  #157 ) ;
#41 = EDGE_CURVE ( 'NONE', #71, #73, #91, .T. ) ;
#42 = EDGE_CURVE ( 'NONE', #102, #28, #86, .T. ) ;
#43 = ORIENTED_EDGE ( 'NONE', *, *, #42, .F. ) ;
#44 = ADVANCED_BREP_SHAPE_REPRESENTATION ( 'Web Model 68157_21001', ( #120, #78 ), #2 ) ;
#45 = CARTESIAN_POINT ( 'NONE',  ( 6.349999999999999645, 7.776507174585692163E-16, 0.000000000000000000 ) ) ;
#46 = APPROVAL_STATUS ( 'not_yet_approved' ) ;
#47 = DIRECTION ( 'NONE',  ( 0.000000000000000000, 0.000000000000000000, 1.000000000000000000 ) ) ;
#48 = ADVANCED_FACE ( 'NONE', ( #94 ), #135, .T. ) ;
#49 = COORDINATED_UNIVERSAL_TIME_OFFSET ( 5, 0, .BEHIND. ) ;
#50 = ADVANCED_FACE ( 'NONE', ( #8 ), #64, .T. ) ;
#51 = DATE_AND_TIME ( #96, #156 ) ;
#52 = CIRCLE ( 'NONE', #79, 6.349999999999999645 ) ;
#53 = SECURITY_CLASSIFICATION_LEVEL ( 'unclassified' ) ;
#54 = PERSON_AND_ORGANIZATION ( #174, #98 ) ;
#55 = CC_DESIGN_PERSON_AND_ORGANIZATION_ASSIGNMENT ( #165, #153, ( #141 ) ) ;
#56 = EDGE_CURVE ( 'NONE', #73, #102, #92, .T. ) ;
#57 = CARTESIAN_POINT ( 'NONE',  ( 0.000000000000000000, 0.000000000000000000, 0.000000000000000000 ) ) ;
#58 = AXIS2_PLACEMENT_3D ( 'NONE', #146, #81, #107 ) ;
#59 = CC_DESIGN_PERSON_AND_ORGANIZATION_ASSIGNMENT ( #105, #7, ( #80 ) ) ;
#60 = PRODUCT_DEFINITION_SHAPE ( 'NONE', 'NONE',  #169 ) ;
#61 = ORIENTED_EDGE ( 'NONE', *, *, #144, .T. ) ;
#62 = CARTESIAN_POINT ( 'NONE',  ( 6.349999999999999645, 7.776507174585692163E-16, 1.000000000000000000 ) ) ;
#63 =( NAMED_UNIT ( * ) PLANE_ANGLE_UNIT ( ) SI_UNIT ( $, .RADIAN. ) );
#64 = CYLINDRICAL_SURFACE ( 'NONE', #26, 6.349999999999999645 ) ;
#65 = DIRECTION ( 'NONE',  ( 1.000000000000000000, 0.000000000000000000, 0.000000000000000000 ) ) ;
#66 = DATE_AND_TIME ( #67, #22 ) ;
#67 = CALENDAR_DATE ( 2022, 15, 3 ) ;
#68 = COORDINATED_UNIVERSAL_TIME_OFFSET ( 5, 0, .BEHIND. ) ;
#69 = CC_DESIGN_PERSON_AND_ORGANIZATION_ASSIGNMENT ( #137, #124, ( #169 ) ) ;
#70 = LOCAL_TIME ( 15, 22, 52.00000000000000000, #23 ) ;
#71 = VERTEX_POINT ( 'NONE', #131 ) ;
#72 = DESIGN_CONTEXT ( 'detailed design', #87, 'design' ) ;
#73 = VERTEX_POINT ( 'NONE', #171 ) ;
#74 = ORIENTED_EDGE ( 'NONE', *, *, #36, .F. ) ;
#75 = CC_DESIGN_PERSON_AND_ORGANIZATION_ASSIGNMENT ( #21, #83, ( #18 ) ) ;
#76 = ORIENTED_EDGE ( 'NONE', *, *, #56, .F. ) ;
#77 = CARTESIAN_POINT ( 'NONE',  ( 0.000000000000000000, 0.000000000000000000, 1.000000000000000000 ) ) ;
#78 = AXIS2_PLACEMENT_3D ( 'NONE', #82, #30, #65 ) ;
#79 = AXIS2_PLACEMENT_3D ( 'NONE', #77, #47, #6 ) ;
#80 = PRODUCT ( 'Web Model 68157_21001', 'Web Model 68157_21001', '', ( #29 ) ) ;
#81 = DIRECTION ( 'NONE',  ( 0.000000000000000000, 0.000000000000000000, 1.000000000000000000 ) ) ;
#82 = CARTESIAN_POINT ( 'NONE',  ( 0.000000000000000000, 0.000000000000000000, 0.000000000000000000 ) ) ;
#83 = PERSON_AND_ORGANIZATION_ROLE ( 'classification_officer' ) ;
#84 = PERSON_AND_ORGANIZATION ( #174, #98 ) ;
#85 = EDGE_LOOP ( 'NONE', ( #90, #43 ) ) ;
#86 = CIRCLE ( 'NONE', #19, 6.349999999999999645 ) ;
#87 = APPLICATION_CONTEXT ( 'configuration controlled 3d designs of mechanical parts and assemblies' ) ;
#88 = ORIENTED_EDGE ( 'NONE', *, *, #4, .T. ) ;
#89 = ORIENTED_EDGE ( 'NONE', *, *, #41, .F. ) ;
#90 = ORIENTED_EDGE ( 'NONE', *, *, #4, .F. ) ;
#91 = CIRCLE ( 'NONE', #58, 6.349999999999999645 ) ;
#92 = LINE ( 'NONE', #62, #130 ) ;
#93 = DIRECTION ( 'NONE',  ( -1.000000000000000000, 0.000000000000000000, 0.000000000000000000 ) ) ;
#94 = FACE_OUTER_BOUND ( 'NONE', #14, .T. ) ;
#95 = CARTESIAN_POINT ( 'NONE',  ( 0.000000000000000000, 0.000000000000000000, 1.000000000000000000 ) ) ;
#96 = CALENDAR_DATE ( 2022, 15, 3 ) ;
#97 = APPROVAL_ROLE ( '' ) ;
#98 = ORGANIZATION ( 'UNSPECIFIED', 'UNSPECIFIED', '' ) ;
#99 = CC_DESIGN_SECURITY_CLASSIFICATION ( #18, ( #141 ) ) ;
#100 = CARTESIAN_POINT ( 'NONE',  ( 0.000000000000000000, 0.000000000000000000, 0.000000000000000000 ) ) ;
#101 = DIRECTION ( 'NONE',  ( 1.000000000000000000, 0.000000000000000000, 0.000000000000000000 ) ) ;
#102 = VERTEX_POINT ( 'NONE', #45 ) ;
#103 = CARTESIAN_POINT ( 'NONE',  ( 0.000000000000000000, 0.000000000000000000, 1.000000000000000000 ) ) ;
#104 = APPROVAL ( #46, 'UNSPECIFIED' ) ;
#105 = PERSON_AND_ORGANIZATION ( #174, #98 ) ;
#106 = DIRECTION ( 'NONE',  ( -0.000000000000000000, -0.000000000000000000, -1.000000000000000000 ) ) ;
#107 = DIRECTION ( 'NONE',  ( 1.000000000000000000, 0.000000000000000000, 0.000000000000000000 ) ) ;
#108 = APPROVAL_DATE_TIME ( #51, #142 ) ;
#109 = LOCAL_TIME ( 15, 22, 52.00000000000000000, #68 ) ;
#110 = APPROVAL_PERSON_ORGANIZATION ( #54, #152, #11 ) ;
#111 = APPROVAL_PERSON_ORGANIZATION ( #149, #104, #164 ) ;
#112 = ADVANCED_FACE ( 'NONE', ( #128 ), #173, .T. ) ;
#113 = SHAPE_DEFINITION_REPRESENTATION ( #60, #44 ) ;
#114 = APPROVAL_STATUS ( 'not_yet_approved' ) ;
#115 = CIRCLE ( 'NONE', #10, 6.349999999999999645 ) ;
#116 = EDGE_LOOP ( 'NONE', ( #76, #89, #159, #88 ) ) ;
#117 = DIRECTION ( 'NONE',  ( -0.000000000000000000, -0.000000000000000000, -1.000000000000000000 ) ) ;
#118 = DIRECTION ( 'NONE',  ( 1.000000000000000000, 0.000000000000000000, 0.000000000000000000 ) ) ;
#119 = APPLICATION_PROTOCOL_DEFINITION ( 'international standard', 'config_control_design', 1994, #87 ) ;
#120 = MANIFOLD_SOLID_BREP ( 'Boss-Extrude1', #38 ) ;
#121 = CARTESIAN_POINT ( 'NONE',  ( 0.000000000000000000, 0.000000000000000000, 1.000000000000000000 ) ) ;
#122 = LOCAL_TIME ( 15, 22, 52.00000000000000000, #32 ) ;
#123 = APPROVAL_DATE_TIME ( #151, #104 ) ;
#124 = PERSON_AND_ORGANIZATION_ROLE ( 'creator' ) ;
#125 = ORIENTED_EDGE ( 'NONE', *, *, #56, .T. ) ;
#126 = AXIS2_PLACEMENT_3D ( 'NONE', #103, #148, #172 ) ;
#127 = DIRECTION ( 'NONE',  ( 0.000000000000000000, 0.000000000000000000, 1.000000000000000000 ) ) ;
#128 = FACE_OUTER_BOUND ( 'NONE', #154, .T. ) ;
#129 = APPROVAL_PERSON_ORGANIZATION ( #84, #142, #97 ) ;
#130 = VECTOR ( 'NONE', #31, 1000.000000000000000 ) ;
#131 = CARTESIAN_POINT ( 'NONE',  ( -6.349999999999999645, 0.000000000000000000, 1.000000000000000000 ) ) ;
#132 = UNCERTAINTY_MEASURE_WITH_UNIT (LENGTH_MEASURE( 1.000000000000000082E-05 ), #17, 'distance_accuracy_value', 'NONE');
#133 = PRODUCT_RELATED_PRODUCT_CATEGORY ( 'detail', '', ( #80 ) ) ;
#134 = DIRECTION ( 'NONE',  ( -1.000000000000000000, 0.000000000000000000, 0.000000000000000000 ) ) ;
#135 = CYLINDRICAL_SURFACE ( 'NONE', #170, 6.349999999999999645 ) ;
#136 = CALENDAR_DATE ( 2022, 15, 3 ) ;
#137 = PERSON_AND_ORGANIZATION ( #174, #98 ) ;
#138 = APPLICATION_CONTEXT ( 'configuration controlled 3d designs of mechanical parts and assemblies' ) ;
#139 = CC_DESIGN_DATE_AND_TIME_ASSIGNMENT ( #24, #9, ( #18 ) ) ;
#140 = CALENDAR_DATE ( 2022, 15, 3 ) ;
#141 = PRODUCT_DEFINITION_FORMATION_WITH_SPECIFIED_SOURCE ( 'ANY', '', #80, .NOT_KNOWN. ) ;
#142 = APPROVAL ( #150, 'UNSPECIFIED' ) ;
#143 = ORIENTED_EDGE ( 'NONE', *, *, #41, .T. ) ;
#144 = EDGE_CURVE ( 'NONE', #73, #71, #52, .T. ) ;
#145 = CARTESIAN_POINT ( 'NONE',  ( -6.349999999999999645, 0.000000000000000000, 0.000000000000000000 ) ) ;
#146 = CARTESIAN_POINT ( 'NONE',  ( 0.000000000000000000, 0.000000000000000000, 1.000000000000000000 ) ) ;
#147 = ORIENTED_EDGE ( 'NONE', *, *, #42, .T. ) ;
#148 = DIRECTION ( 'NONE',  ( 0.000000000000000000, 0.000000000000000000, 1.000000000000000000 ) ) ;
#149 = PERSON_AND_ORGANIZATION ( #174, #98 ) ;
#150 = APPROVAL_STATUS ( 'not_yet_approved' ) ;
#151 = DATE_AND_TIME ( #34, #122 ) ;
#152 = APPROVAL ( #114, 'UNSPECIFIED' ) ;
#153 = PERSON_AND_ORGANIZATION_ROLE ( 'creator' ) ;
#154 = EDGE_LOOP ( 'NONE', ( #143, #61 ) ) ;
#155 = LINE ( 'NONE', #13, #168 ) ;
#156 = LOCAL_TIME ( 15, 22, 52.00000000000000000, #49 ) ;
#157 = AXIS2_PLACEMENT_3D ( 'NONE', #100, #158, #27 ) ;
#158 = DIRECTION ( 'NONE',  ( 0.000000000000000000, 0.000000000000000000, 1.000000000000000000 ) ) ;
#159 = ORIENTED_EDGE ( 'NONE', *, *, #36, .T. ) ;
#160 = CC_DESIGN_APPROVAL ( #104, ( #169 ) ) ;
#161 = APPLICATION_PROTOCOL_DEFINITION ( 'international standard', 'config_control_design', 1994, #138 ) ;
#162 = CC_DESIGN_PERSON_AND_ORGANIZATION_ASSIGNMENT ( #20, #166, ( #141 ) ) ;
#163 = CARTESIAN_POINT ( 'NONE',  ( 0.000000000000000000, 0.000000000000000000, 0.000000000000000000 ) ) ;
#164 = APPROVAL_ROLE ( '' ) ;
#165 = PERSON_AND_ORGANIZATION ( #174, #98 ) ;
#166 = PERSON_AND_ORGANIZATION_ROLE ( 'design_supplier' ) ;
#167 = COORDINATED_UNIVERSAL_TIME_OFFSET ( 5, 0, .BEHIND. ) ;
#168 = VECTOR ( 'NONE', #25, 1000.000000000000000 ) ;
#169 = PRODUCT_DEFINITION ( 'UNKNOWN', '', #141, #72 ) ;
#170 = AXIS2_PLACEMENT_3D ( 'NONE', #95, #106, #134 ) ;
#171 = CARTESIAN_POINT ( 'NONE',  ( 6.349999999999999645, 7.776507174585692163E-16, 1.000000000000000000 ) ) ;
#172 = DIRECTION ( 'NONE',  ( 1.000000000000000000, 0.000000000000000000, -0.000000000000000000 ) ) ;
#173 = PLANE ( 'NONE',  #126 ) ;
#174 = PERSON ( 'UNSPECIFIED', 'UNSPECIFIED', 'UNSPECIFIED', ('UNSPECIFIED'), ('UNSPECIFIED'), ('UNSPECIFIED') ) ;
#175 = CC_DESIGN_APPROVAL ( #142, ( #141 ) ) ;
ENDSEC;
END-ISO-10303-21;
