ISO-10303-21;
HEADER;
FILE_DESCRIPTION (( 'STEP AP203' ),
    '1' );
FILE_NAME ('Web Model 46604_46606.step',
    '2017-04-10T15:59:55',
    ( '' ),
    ( '' ),
    'SwSTEP 2.0',
    'SolidWorks 2016',
    '' );
FILE_SCHEMA (( 'CONFIG_CONTROL_DESIGN' ));
ENDSEC;

DATA;
#1 = APPROVAL ( #115, 'UNSPECIFIED' ) ;
#2 = VERTEX_POINT ( 'NONE', #234 ) ;
#3 = FACE_OUTER_BOUND ( 'NONE', #87, .T. ) ;
#4 = EDGE_CURVE ( 'NONE', #168, #20, #78, .T. ) ;
#5 = VECTOR ( 'NONE', #137, 1000.000000000000000 ) ;
#6 = ORIENTED_EDGE ( 'NONE', *, *, #211, .F. ) ;
#7 = CARTESIAN_POINT ( 'NONE',  ( -6.250000000000001800, -8.750000000000001800, 0.5000000000000000000 ) ) ;
#8 = LINE ( 'NONE', #37, #219 ) ;
#9 = APPROVAL_STATUS ( 'not_yet_approved' ) ;
#10 = DATE_AND_TIME ( #143, #80 ) ;
#11 = APPROVAL ( #9, 'UNSPECIFIED' ) ;
#12 = DATE_AND_TIME ( #50, #33 ) ;
#13 = ADVANCED_FACE ( 'NONE', ( #155 ), #18, .F. ) ;
#14 = VECTOR ( 'NONE', #224, 1000.000000000000000 ) ;
#15 = CC_DESIGN_APPROVAL ( #1, ( #227 ) ) ;
#16 = VECTOR ( 'NONE', #138, 1000.000000000000000 ) ;
#17 = EDGE_LOOP ( 'NONE', ( #72, #141, #92, #52 ) ) ;
#18 = PLANE ( 'NONE',  #44 ) ;
#19 = DIRECTION ( 'NONE',  ( 0.0000000000000000000, -0.0000000000000000000, -1.000000000000000000 ) ) ;
#20 = VERTEX_POINT ( 'NONE', #110 ) ;
#21 = LINE ( 'NONE', #120, #16 ) ;
#22 = DIRECTION ( 'NONE',  ( -0.0000000000000000000, -0.0000000000000000000, -1.000000000000000000 ) ) ;
#23 = VERTEX_POINT ( 'NONE', #111 ) ;
#24 = CARTESIAN_POINT ( 'NONE',  ( 6.249999999999998200, -8.750000000000001800, -0.5000000000000000000 ) ) ;
#25 = CALENDAR_DATE ( 2017, 10, 4 ) ;
#26 = COORDINATED_UNIVERSAL_TIME_OFFSET ( 5, 0, .BEHIND. ) ;
#27 = CARTESIAN_POINT ( 'NONE',  ( -6.250000000000001800, 8.749999999999998200, 0.5000000000000000000 ) ) ;
#28 = DATE_TIME_ROLE ( 'classification_date' ) ;
#29 = LOCAL_TIME ( 11, 59, 55.00000000000000000, #140 ) ;
#30 = VERTEX_POINT ( 'NONE', #134 ) ;
#31 = VERTEX_POINT ( 'NONE', #151 ) ;
#32 = ADVANCED_BREP_SHAPE_REPRESENTATION ( 'Web Model 46604_46606', ( #55, #205 ), #149 ) ;
#33 = LOCAL_TIME ( 11, 59, 55.00000000000000000, #105 ) ;
#34 = CC_DESIGN_PERSON_AND_ORGANIZATION_ASSIGNMENT ( #84, #96, ( #227 ) ) ;
#35 = ORIENTED_EDGE ( 'NONE', *, *, #153, .F. ) ;
#36 = MECHANICAL_CONTEXT ( 'NONE', #54, 'mechanical' ) ;
#37 = CARTESIAN_POINT ( 'NONE',  ( -6.250000000000001800, 8.749999999999998200, -0.5000000000000000000 ) ) ;
#38 = CARTESIAN_POINT ( 'NONE',  ( -6.250000000000001800, -8.750000000000001800, 0.5000000000000000000 ) ) ;
#39 = LINE ( 'NONE', #7, #101 ) ;
#40 = DIRECTION ( 'NONE',  ( 0.0000000000000000000, 1.000000000000000000, 0.0000000000000000000 ) ) ;
#41 = APPROVAL_DATE_TIME ( #212, #11 ) ;
#42 = PERSON_AND_ORGANIZATION ( #95, #178 ) ;
#43 = CC_DESIGN_PERSON_AND_ORGANIZATION_ASSIGNMENT ( #42, #94, ( #227 ) ) ;
#44 = AXIS2_PLACEMENT_3D ( 'NONE', #220, #69, #165 ) ;
#45 = APPLICATION_CONTEXT ( 'configuration controlled 3d designs of mechanical parts and assemblies' ) ;
#46 = PERSON_AND_ORGANIZATION ( #95, #178 ) ;
#47 = DIRECTION ( 'NONE',  ( 0.0000000000000000000, 0.0000000000000000000, -1.000000000000000000 ) ) ;
#48 = ORIENTED_EDGE ( 'NONE', *, *, #202, .F. ) ;
#49 = APPROVAL_STATUS ( 'not_yet_approved' ) ;
#50 = CALENDAR_DATE ( 2017, 10, 4 ) ;
#51 = DATE_TIME_ROLE ( 'creation_date' ) ;
#52 = ORIENTED_EDGE ( 'NONE', *, *, #153, .T. ) ;
#53 = FACE_OUTER_BOUND ( 'NONE', #204, .T. ) ;
#54 = APPLICATION_CONTEXT ( 'configuration controlled 3d designs of mechanical parts and assemblies' ) ;
#55 = MANIFOLD_SOLID_BREP ( 'Boss-Extrude1', #208 ) ;
#56 = SECURITY_CLASSIFICATION ( '', '', #162 ) ;
#57 = PERSON_AND_ORGANIZATION_ROLE ( 'design_owner' ) ;
#58 = ORIENTED_EDGE ( 'NONE', *, *, #127, .T. ) ;
#59 = LINE ( 'NONE', #123, #125 ) ;
#60 = DIRECTION ( 'NONE',  ( -1.000000000000000000, -0.0000000000000000000, -0.0000000000000000000 ) ) ;
#61 =( NAMED_UNIT ( * ) PLANE_ANGLE_UNIT ( ) SI_UNIT ( $, .RADIAN. ) );
#62 = DIRECTION ( 'NONE',  ( -1.000000000000000000, -0.0000000000000000000, -0.0000000000000000000 ) ) ;
#63 = LINE ( 'NONE', #160, #200 ) ;
#64 = CC_DESIGN_PERSON_AND_ORGANIZATION_ASSIGNMENT ( #148, #216, ( #56 ) ) ;
#65 = LOCAL_TIME ( 11, 59, 55.00000000000000000, #222 ) ;
#66 = DATE_AND_TIME ( #104, #229 ) ;
#67 = AXIS2_PLACEMENT_3D ( 'NONE', #201, #193, #89 ) ;
#68 = FACE_OUTER_BOUND ( 'NONE', #17, .T. ) ;
#69 = DIRECTION ( 'NONE',  ( -1.000000000000000000, 0.0000000000000000000, 0.0000000000000000000 ) ) ;
#70 = ADVANCED_FACE ( 'NONE', ( #68 ), #189, .F. ) ;
#71 = ORIENTED_EDGE ( 'NONE', *, *, #127, .F. ) ;
#72 = ORIENTED_EDGE ( 'NONE', *, *, #228, .T. ) ;
#73 = DIRECTION ( 'NONE',  ( -1.000000000000000000, 0.0000000000000000000, -0.0000000000000000000 ) ) ;
#74 = ORIENTED_EDGE ( 'NONE', *, *, #164, .T. ) ;
#75 = CARTESIAN_POINT ( 'NONE',  ( 6.249999999999998200, -8.750000000000001800, 0.5000000000000000000 ) ) ;
#76 = DIRECTION ( 'NONE',  ( -1.000000000000000000, 0.0000000000000000000, -0.0000000000000000000 ) ) ;
#77 = CC_DESIGN_DATE_AND_TIME_ASSIGNMENT ( #12, #28, ( #56 ) ) ;
#78 = LINE ( 'NONE', #75, #116 ) ;
#79 = ORIENTED_EDGE ( 'NONE', *, *, #177, .T. ) ;
#80 = LOCAL_TIME ( 11, 59, 55.00000000000000000, #26 ) ;
#81 = APPROVAL_ROLE ( '' ) ;
#82 = EDGE_LOOP ( 'NONE', ( #156, #175, #226, #159 ) ) ;
#83 = VECTOR ( 'NONE', #114, 1000.000000000000000 ) ;
#84 = PERSON_AND_ORGANIZATION ( #95, #178 ) ;
#85 = APPROVAL ( #49, 'UNSPECIFIED' ) ;
#86 = APPROVAL_DATE_TIME ( #10, #85 ) ;
#87 = EDGE_LOOP ( 'NONE', ( #58, #145, #6, #79 ) ) ;
#88 = AXIS2_PLACEMENT_3D ( 'NONE', #196, #103, #73 ) ;
#89 = DIRECTION ( 'NONE',  ( 0.0000000000000000000, -0.0000000000000000000, 1.000000000000000000 ) ) ;
#90 = ORIENTED_EDGE ( 'NONE', *, *, #228, .F. ) ;
#91 = EDGE_LOOP ( 'NONE', ( #48, #90, #192, #71 ) ) ;
#92 = ORIENTED_EDGE ( 'NONE', *, *, #188, .F. ) ;
#93 = LINE ( 'NONE', #173, #99 ) ;
#94 = PERSON_AND_ORGANIZATION_ROLE ( 'design_supplier' ) ;
#95 = PERSON ( 'UNSPECIFIED', 'UNSPECIFIED', 'UNSPECIFIED', ('UNSPECIFIED'), ('UNSPECIFIED'), ('UNSPECIFIED') ) ;
#96 = PERSON_AND_ORGANIZATION_ROLE ( 'creator' ) ;
#97 = CC_DESIGN_APPROVAL ( #85, ( #56 ) ) ;
#98 = DIRECTION ( 'NONE',  ( -0.0000000000000000000, -0.0000000000000000000, -1.000000000000000000 ) ) ;
#99 = VECTOR ( 'NONE', #215, 1000.000000000000000 ) ;
#100 = PLANE ( 'NONE',  #161 ) ;
#101 = VECTOR ( 'NONE', #170, 1000.000000000000000 ) ;
#102 = ADVANCED_FACE ( 'NONE', ( #181 ), #182, .T. ) ;
#103 = DIRECTION ( 'NONE',  ( 0.0000000000000000000, 0.0000000000000000000, -1.000000000000000000 ) ) ;
#104 = CALENDAR_DATE ( 2017, 10, 4 ) ;
#105 = COORDINATED_UNIVERSAL_TIME_OFFSET ( 5, 0, .BEHIND. ) ;
#106 = CC_DESIGN_SECURITY_CLASSIFICATION ( #56, ( #227 ) ) ;
#107 = AXIS2_PLACEMENT_3D ( 'NONE', #38, #121, #47 ) ;
#108 = VERTEX_POINT ( 'NONE', #128 ) ;
#109 = FACE_OUTER_BOUND ( 'NONE', #82, .T. ) ;
#110 = CARTESIAN_POINT ( 'NONE',  ( 6.249999999999998200, -8.750000000000001800, -0.5000000000000000000 ) ) ;
#111 = CARTESIAN_POINT ( 'NONE',  ( -6.250000000000001800, 8.749999999999998200, -0.5000000000000000000 ) ) ;
#112 = EDGE_CURVE ( 'NONE', #168, #31, #118, .T. ) ;
#113 = LINE ( 'NONE', #124, #83 ) ;
#114 = DIRECTION ( 'NONE',  ( -0.0000000000000000000, -1.000000000000000000, -0.0000000000000000000 ) ) ;
#115 = APPROVAL_STATUS ( 'not_yet_approved' ) ;
#116 = VECTOR ( 'NONE', #98, 1000.000000000000000 ) ;
#117 = ORIENTED_EDGE ( 'NONE', *, *, #202, .T. ) ;
#118 = LINE ( 'NONE', #195, #5 ) ;
#119 = PRODUCT_RELATED_PRODUCT_CATEGORY ( 'detail', '', ( #129 ) ) ;
#120 = CARTESIAN_POINT ( 'NONE',  ( -6.250000000000001800, -8.750000000000001800, -0.5000000000000000000 ) ) ;
#121 = DIRECTION ( 'NONE',  ( 1.000000000000000000, 0.0000000000000000000, 0.0000000000000000000 ) ) ;
#122 = LINE ( 'NONE', #24, #199 ) ;
#123 = CARTESIAN_POINT ( 'NONE',  ( -6.250000000000001800, -8.750000000000001800, 0.5000000000000000000 ) ) ;
#124 = CARTESIAN_POINT ( 'NONE',  ( -6.250000000000001800, -8.750000000000001800, -0.5000000000000000000 ) ) ;
#125 = VECTOR ( 'NONE', #132, 1000.000000000000000 ) ;
#126 = EDGE_CURVE ( 'NONE', #108, #2, #39, .T. ) ;
#127 = EDGE_CURVE ( 'NONE', #30, #23, #8, .T. ) ;
#128 = CARTESIAN_POINT ( 'NONE',  ( -6.250000000000001800, 8.749999999999998200, 0.5000000000000000000 ) ) ;
#129 = PRODUCT ( 'Web Model 46604_46606', 'Web Model 46604_46606', '', ( #36 ) ) ;
#130 =( NAMED_UNIT ( * ) SI_UNIT ( $, .STERADIAN. ) SOLID_ANGLE_UNIT ( ) );
#131 = PRODUCT_DEFINITION_SHAPE ( 'NONE', 'NONE',  #235 ) ;
#132 = DIRECTION ( 'NONE',  ( 1.000000000000000000, 0.0000000000000000000, 0.0000000000000000000 ) ) ;
#133 = UNCERTAINTY_MEASURE_WITH_UNIT (LENGTH_MEASURE( 1.000000000000000100E-005 ), #158, 'distance_accuracy_value', 'NONE');
#134 = CARTESIAN_POINT ( 'NONE',  ( 6.249999999999998200, 8.749999999999998200, -0.5000000000000000000 ) ) ;
#135 = AXIS2_PLACEMENT_3D ( 'NONE', #207, #233, #76 ) ;
#136 = VERTEX_POINT ( 'NONE', #154 ) ;
#137 = DIRECTION ( 'NONE',  ( 0.0000000000000000000, 1.000000000000000000, 0.0000000000000000000 ) ) ;
#138 = DIRECTION ( 'NONE',  ( 1.000000000000000000, 0.0000000000000000000, 0.0000000000000000000 ) ) ;
#139 = PLANE ( 'NONE',  #135 ) ;
#140 = COORDINATED_UNIVERSAL_TIME_OFFSET ( 5, 0, .BEHIND. ) ;
#141 = ORIENTED_EDGE ( 'NONE', *, *, #4, .F. ) ;
#142 = EDGE_CURVE ( 'NONE', #108, #23, #63, .T. ) ;
#143 = CALENDAR_DATE ( 2017, 10, 4 ) ;
#144 = PERSON_AND_ORGANIZATION ( #95, #178 ) ;
#145 = ORIENTED_EDGE ( 'NONE', *, *, #142, .F. ) ;
#146 = SHAPE_DEFINITION_REPRESENTATION ( #131, #32 ) ;
#147 = APPROVAL_ROLE ( '' ) ;
#148 = PERSON_AND_ORGANIZATION ( #95, #178 ) ;
#149 =( GEOMETRIC_REPRESENTATION_CONTEXT ( 3 ) GLOBAL_UNCERTAINTY_ASSIGNED_CONTEXT ( ( #133 ) ) GLOBAL_UNIT_ASSIGNED_CONTEXT ( ( #158, #61, #130 ) ) REPRESENTATION_CONTEXT ( 'NONE', 'WORKASPACE' ) );
#150 = ORIENTED_EDGE ( 'NONE', *, *, #4, .T. ) ;
#151 = CARTESIAN_POINT ( 'NONE',  ( 6.249999999999998200, 8.749999999999998200, 0.5000000000000000000 ) ) ;
#152 = PERSON_AND_ORGANIZATION ( #95, #178 ) ;
#153 = EDGE_CURVE ( 'NONE', #2, #136, #93, .T. ) ;
#154 = CARTESIAN_POINT ( 'NONE',  ( -6.250000000000001800, -8.750000000000001800, -0.5000000000000000000 ) ) ;
#155 = FACE_OUTER_BOUND ( 'NONE', #172, .T. ) ;
#156 = ORIENTED_EDGE ( 'NONE', *, *, #112, .T. ) ;
#157 = ADVANCED_FACE ( 'NONE', ( #53 ), #176, .F. ) ;
#158 =( LENGTH_UNIT ( ) NAMED_UNIT ( * ) SI_UNIT ( .MILLI., .METRE. ) );
#159 = ORIENTED_EDGE ( 'NONE', *, *, #188, .T. ) ;
#160 = CARTESIAN_POINT ( 'NONE',  ( -6.250000000000001800, 8.749999999999998200, 0.5000000000000000000 ) ) ;
#161 = AXIS2_PLACEMENT_3D ( 'NONE', #27, #218, #19 ) ;
#162 = SECURITY_CLASSIFICATION_LEVEL ( 'unclassified' ) ;
#163 = PERSON_AND_ORGANIZATION ( #95, #178 ) ;
#164 = EDGE_CURVE ( 'NONE', #23, #136, #113, .T. ) ;
#165 = DIRECTION ( 'NONE',  ( 0.0000000000000000000, 0.0000000000000000000, 1.000000000000000000 ) ) ;
#166 = DATE_AND_TIME ( #25, #65 ) ;
#167 = PERSON_AND_ORGANIZATION ( #95, #178 ) ;
#168 = VERTEX_POINT ( 'NONE', #237 ) ;
#169 = APPLICATION_PROTOCOL_DEFINITION ( 'international standard', 'config_control_design', 1994, #45 ) ;
#170 = DIRECTION ( 'NONE',  ( -0.0000000000000000000, -1.000000000000000000, -0.0000000000000000000 ) ) ;
#171 = CALENDAR_DATE ( 2017, 10, 4 ) ;
#172 = EDGE_LOOP ( 'NONE', ( #117, #190, #191, #150 ) ) ;
#173 = CARTESIAN_POINT ( 'NONE',  ( -6.250000000000001800, -8.750000000000001800, 0.5000000000000000000 ) ) ;
#174 = ADVANCED_FACE ( 'NONE', ( #109 ), #139, .F. ) ;
#175 = ORIENTED_EDGE ( 'NONE', *, *, #211, .T. ) ;
#176 = PLANE ( 'NONE',  #107 ) ;
#177 = EDGE_CURVE ( 'NONE', #31, #30, #187, .T. ) ;
#178 = ORGANIZATION ( 'UNSPECIFIED', 'UNSPECIFIED', '' ) ;
#179 = PERSON_AND_ORGANIZATION_ROLE ( 'creator' ) ;
#180 = ORIENTED_EDGE ( 'NONE', *, *, #142, .T. ) ;
#181 = FACE_OUTER_BOUND ( 'NONE', #91, .T. ) ;
#182 = PLANE ( 'NONE',  #88 ) ;
#183 = APPROVAL_PERSON_ORGANIZATION ( #144, #85, #81 ) ;
#184 = APPROVAL_PERSON_ORGANIZATION ( #167, #1, #194 ) ;
#185 = CARTESIAN_POINT ( 'NONE',  ( 6.249999999999998200, 8.749999999999998200, 0.5000000000000000000 ) ) ;
#186 = CC_DESIGN_APPROVAL ( #11, ( #235 ) ) ;
#187 = LINE ( 'NONE', #185, #14 ) ;
#188 = EDGE_CURVE ( 'NONE', #2, #168, #59, .T. ) ;
#189 = PLANE ( 'NONE',  #67 ) ;
#190 = ORIENTED_EDGE ( 'NONE', *, *, #177, .F. ) ;
#191 = ORIENTED_EDGE ( 'NONE', *, *, #112, .F. ) ;
#192 = ORIENTED_EDGE ( 'NONE', *, *, #164, .F. ) ;
#193 = DIRECTION ( 'NONE',  ( 0.0000000000000000000, 1.000000000000000000, 0.0000000000000000000 ) ) ;
#194 = APPROVAL_ROLE ( '' ) ;
#195 = CARTESIAN_POINT ( 'NONE',  ( 6.249999999999998200, -8.750000000000001800, 0.5000000000000000000 ) ) ;
#196 = CARTESIAN_POINT ( 'NONE',  ( 0.0000000000000000000, 0.0000000000000000000, -0.5000000000000000000 ) ) ;
#197 = APPLICATION_PROTOCOL_DEFINITION ( 'international standard', 'config_control_design', 1994, #54 ) ;
#198 = CC_DESIGN_PERSON_AND_ORGANIZATION_ASSIGNMENT ( #46, #179, ( #235 ) ) ;
#199 = VECTOR ( 'NONE', #40, 1000.000000000000000 ) ;
#200 = VECTOR ( 'NONE', #22, 1000.000000000000000 ) ;
#201 = CARTESIAN_POINT ( 'NONE',  ( -6.250000000000001800, -8.750000000000001800, 0.5000000000000000000 ) ) ;
#202 = EDGE_CURVE ( 'NONE', #20, #30, #122, .T. ) ;
#203 = CARTESIAN_POINT ( 'NONE',  ( 0.0000000000000000000, 0.0000000000000000000, 0.0000000000000000000 ) ) ;
#204 = EDGE_LOOP ( 'NONE', ( #74, #35, #221, #180 ) ) ;
#205 = AXIS2_PLACEMENT_3D ( 'NONE', #203, #232, #236 ) ;
#206 = VECTOR ( 'NONE', #60, 1000.000000000000000 ) ;
#207 = CARTESIAN_POINT ( 'NONE',  ( 0.0000000000000000000, 0.0000000000000000000, 0.5000000000000000000 ) ) ;
#208 = CLOSED_SHELL ( 'NONE', ( #13, #231, #157, #70, #174, #102 ) ) ;
#209 = CARTESIAN_POINT ( 'NONE',  ( -6.250000000000001800, 8.749999999999998200, 0.5000000000000000000 ) ) ;
#210 = CC_DESIGN_DATE_AND_TIME_ASSIGNMENT ( #66, #51, ( #235 ) ) ;
#211 = EDGE_CURVE ( 'NONE', #31, #108, #225, .T. ) ;
#212 = DATE_AND_TIME ( #171, #29 ) ;
#213 = DESIGN_CONTEXT ( 'detailed design', #45, 'design' ) ;
#214 = COORDINATED_UNIVERSAL_TIME_OFFSET ( 5, 0, .BEHIND. ) ;
#215 = DIRECTION ( 'NONE',  ( -0.0000000000000000000, -0.0000000000000000000, -1.000000000000000000 ) ) ;
#216 = PERSON_AND_ORGANIZATION_ROLE ( 'classification_officer' ) ;
#217 = APPROVAL_DATE_TIME ( #166, #1 ) ;
#218 = DIRECTION ( 'NONE',  ( 0.0000000000000000000, -1.000000000000000000, 0.0000000000000000000 ) ) ;
#219 = VECTOR ( 'NONE', #62, 1000.000000000000000 ) ;
#220 = CARTESIAN_POINT ( 'NONE',  ( 6.249999999999998200, -8.750000000000001800, 0.5000000000000000000 ) ) ;
#221 = ORIENTED_EDGE ( 'NONE', *, *, #126, .F. ) ;
#222 = COORDINATED_UNIVERSAL_TIME_OFFSET ( 5, 0, .BEHIND. ) ;
#223 = CC_DESIGN_PERSON_AND_ORGANIZATION_ASSIGNMENT ( #163, #57, ( #129 ) ) ;
#224 = DIRECTION ( 'NONE',  ( -0.0000000000000000000, -0.0000000000000000000, -1.000000000000000000 ) ) ;
#225 = LINE ( 'NONE', #209, #206 ) ;
#226 = ORIENTED_EDGE ( 'NONE', *, *, #126, .T. ) ;
#227 = PRODUCT_DEFINITION_FORMATION_WITH_SPECIFIED_SOURCE ( 'ANY', '', #129, .NOT_KNOWN. ) ;
#228 = EDGE_CURVE ( 'NONE', #136, #20, #21, .T. ) ;
#229 = LOCAL_TIME ( 11, 59, 55.00000000000000000, #214 ) ;
#230 = APPROVAL_PERSON_ORGANIZATION ( #152, #11, #147 ) ;
#231 = ADVANCED_FACE ( 'NONE', ( #3 ), #100, .F. ) ;
#232 = DIRECTION ( 'NONE',  ( 0.0000000000000000000, 0.0000000000000000000, 1.000000000000000000 ) ) ;
#233 = DIRECTION ( 'NONE',  ( 0.0000000000000000000, 0.0000000000000000000, -1.000000000000000000 ) ) ;
#234 = CARTESIAN_POINT ( 'NONE',  ( -6.250000000000001800, -8.750000000000001800, 0.5000000000000000000 ) ) ;
#235 = PRODUCT_DEFINITION ( 'UNKNOWN', '', #227, #213 ) ;
#236 = DIRECTION ( 'NONE',  ( 1.000000000000000000, 0.0000000000000000000, 0.0000000000000000000 ) ) ;
#237 = CARTESIAN_POINT ( 'NONE',  ( 6.249999999999998200, -8.750000000000001800, 0.5000000000000000000 ) ) ;
ENDSEC;
END-ISO-10303-21;
