ISO-10303-21;
HEADER;
FILE_DESCRIPTION (( 'STEP AP203' ),
    '1' );
FILE_NAME ('Web Model 64402MX_43207.step',
    '2017-10-30T13:09:59',
    ( '' ),
    ( '' ),
    'SwSTEP 2.0',
    'SolidWorks 2016',
    '' );
FILE_SCHEMA (( 'CONFIG_CONTROL_DESIGN' ));
ENDSEC;

DATA;
#1 = CC_DESIGN_SECURITY_CLASSIFICATION ( #108, ( #99 ) ) ;
#2 = APPROVAL_PERSON_ORGANIZATION ( #184, #161, #186 ) ;
#3 = LINE ( 'NONE', #43, #139 ) ;
#4 = APPROVAL_STATUS ( 'not_yet_approved' ) ;
#5 = APPROVAL_STATUS ( 'not_yet_approved' ) ;
#6 = APPROVAL_DATE_TIME ( #100, #40 ) ;
#7 = EDGE_CURVE ( 'NONE', #217, #47, #171, .T. ) ;
#8 = PERSON_AND_ORGANIZATION ( #64, #207 ) ;
#9 = LINE ( 'NONE', #62, #119 ) ;
#10 = CARTESIAN_POINT ( 'NONE',  ( -12.50000000000000200, 12.50000000000000000, -4.750000000000000000 ) ) ;
#11 = PLANE ( 'NONE',  #92 ) ;
#12 = COORDINATED_UNIVERSAL_TIME_OFFSET ( 5, 0, .BEHIND. ) ;
#13 = CC_DESIGN_PERSON_AND_ORGANIZATION_ASSIGNMENT ( #237, #73, ( #108 ) ) ;
#14 = ORIENTED_EDGE ( 'NONE', *, *, #20, .F. ) ;
#15 = EDGE_CURVE ( 'NONE', #101, #81, #67, .T. ) ;
#16 = FACE_OUTER_BOUND ( 'NONE', #60, .T. ) ;
#17 = PERSON_AND_ORGANIZATION ( #64, #207 ) ;
#18 = CC_DESIGN_PERSON_AND_ORGANIZATION_ASSIGNMENT ( #8, #26, ( #163 ) ) ;
#19 = FACE_OUTER_BOUND ( 'NONE', #198, .T. ) ;
#20 = EDGE_CURVE ( 'NONE', #224, #217, #215, .T. ) ;
#21 = ORIENTED_EDGE ( 'NONE', *, *, #42, .F. ) ;
#22 = ORIENTED_EDGE ( 'NONE', *, *, #20, .T. ) ;
#23 = VECTOR ( 'NONE', #56, 1000.000000000000000 ) ;
#24 = DIRECTION ( 'NONE',  ( -1.000000000000000000, -1.387778780781445700E-016, 0.0000000000000000000 ) ) ;
#25 = CARTESIAN_POINT ( 'NONE',  ( 0.0000000000000000000, 0.0000000000000000000, 0.0000000000000000000 ) ) ;
#26 = PERSON_AND_ORGANIZATION_ROLE ( 'design_owner' ) ;
#27 = LINE ( 'NONE', #170, #162 ) ;
#28 = CC_DESIGN_APPROVAL ( #161, ( #99 ) ) ;
#29 = EDGE_CURVE ( 'NONE', #209, #101, #33, .T. ) ;
#30 = ORIENTED_EDGE ( 'NONE', *, *, #136, .F. ) ;
#31 = VECTOR ( 'NONE', #177, 1000.000000000000000 ) ;
#32 = PRODUCT_DEFINITION ( 'UNKNOWN', '', #99, #193 ) ;
#33 = LINE ( 'NONE', #131, #208 ) ;
#34 = DATE_TIME_ROLE ( 'classification_date' ) ;
#35 = EDGE_CURVE ( 'NONE', #217, #209, #110, .T. ) ;
#36 = DIRECTION ( 'NONE',  ( -0.0000000000000000000, -0.0000000000000000000, -1.000000000000000000 ) ) ;
#37 = CALENDAR_DATE ( 2017, 30, 10 ) ;
#38 = ORIENTED_EDGE ( 'NONE', *, *, #136, .T. ) ;
#39 = DIRECTION ( 'NONE',  ( 0.0000000000000000000, -0.0000000000000000000, 1.000000000000000000 ) ) ;
#40 = APPROVAL ( #206, 'UNSPECIFIED' ) ;
#41 = CARTESIAN_POINT ( 'NONE',  ( 12.49999999999999800, 12.50000000000000400, 4.750000000000000000 ) ) ;
#42 = EDGE_CURVE ( 'NONE', #181, #209, #27, .T. ) ;
#43 = CARTESIAN_POINT ( 'NONE',  ( 12.49999999999999800, 12.50000000000000400, 4.750000000000000000 ) ) ;
#44 = CARTESIAN_POINT ( 'NONE',  ( -12.50000000000000200, -12.50000000000000000, 4.750000000000000000 ) ) ;
#45 = CC_DESIGN_APPROVAL ( #40, ( #108 ) ) ;
#46 = CARTESIAN_POINT ( 'NONE',  ( -12.50000000000000200, -12.50000000000000000, 4.750000000000000000 ) ) ;
#47 = VERTEX_POINT ( 'NONE', #102 ) ;
#48 = DIRECTION ( 'NONE',  ( 1.000000000000000000, 0.0000000000000000000, 0.0000000000000000000 ) ) ;
#49 = APPROVAL_PERSON_ORGANIZATION ( #201, #40, #107 ) ;
#50 = VECTOR ( 'NONE', #221, 1000.000000000000000 ) ;
#51 = ORIENTED_EDGE ( 'NONE', *, *, #15, .T. ) ;
#52 = PERSON_AND_ORGANIZATION_ROLE ( 'creator' ) ;
#53 = CC_DESIGN_PERSON_AND_ORGANIZATION_ASSIGNMENT ( #233, #124, ( #99 ) ) ;
#54 = PERSON_AND_ORGANIZATION ( #64, #207 ) ;
#55 = ADVANCED_FACE ( 'NONE', ( #16 ), #199, .F. ) ;
#56 = DIRECTION ( 'NONE',  ( 0.0000000000000000000, 1.000000000000000000, 0.0000000000000000000 ) ) ;
#57 = CARTESIAN_POINT ( 'NONE',  ( -12.50000000000000200, -12.50000000000000000, 4.750000000000000000 ) ) ;
#58 = CARTESIAN_POINT ( 'NONE',  ( -12.50000000000000200, -12.50000000000000000, 4.750000000000000000 ) ) ;
#59 = PLANE ( 'NONE',  #153 ) ;
#60 = EDGE_LOOP ( 'NONE', ( #219, #30, #166, #204 ) ) ;
#61 = CARTESIAN_POINT ( 'NONE',  ( 0.0000000000000000000, 0.0000000000000000000, -4.750000000000000000 ) ) ;
#62 = CARTESIAN_POINT ( 'NONE',  ( -12.50000000000000200, 12.50000000000000000, 4.750000000000000000 ) ) ;
#63 = CARTESIAN_POINT ( 'NONE',  ( 12.49999999999999800, 12.50000000000000400, -4.750000000000000000 ) ) ;
#64 = PERSON ( 'UNSPECIFIED', 'UNSPECIFIED', 'UNSPECIFIED', ('UNSPECIFIED'), ('UNSPECIFIED'), ('UNSPECIFIED') ) ;
#65 = ORIENTED_EDGE ( 'NONE', *, *, #35, .T. ) ;
#66 =( NAMED_UNIT ( * ) SI_UNIT ( $, .STERADIAN. ) SOLID_ANGLE_UNIT ( ) );
#67 = LINE ( 'NONE', #75, #23 ) ;
#68 = DIRECTION ( 'NONE',  ( 0.0000000000000000000, 0.0000000000000000000, -1.000000000000000000 ) ) ;
#69 = AXIS2_PLACEMENT_3D ( 'NONE', #212, #218, #148 ) ;
#70 = LOCAL_TIME ( 9, 9, 59.00000000000000000, #103 ) ;
#71 = EDGE_CURVE ( 'NONE', #47, #101, #152, .T. ) ;
#72 = ORIENTED_EDGE ( 'NONE', *, *, #7, .F. ) ;
#73 = PERSON_AND_ORGANIZATION_ROLE ( 'classification_officer' ) ;
#74 = VECTOR ( 'NONE', #112, 1000.000000000000000 ) ;
#75 = CARTESIAN_POINT ( 'NONE',  ( 12.49999999999999800, -12.49999999999999600, -4.750000000000000000 ) ) ;
#76 = DIRECTION ( 'NONE',  ( -0.0000000000000000000, -1.000000000000000000, -0.0000000000000000000 ) ) ;
#77 = ORIENTED_EDGE ( 'NONE', *, *, #71, .F. ) ;
#78 = DIRECTION ( 'NONE',  ( -0.0000000000000000000, -0.0000000000000000000, -1.000000000000000000 ) ) ;
#79 = DIRECTION ( 'NONE',  ( -1.000000000000000000, 0.0000000000000000000, 0.0000000000000000000 ) ) ;
#80 = CALENDAR_DATE ( 2017, 30, 10 ) ;
#81 = VERTEX_POINT ( 'NONE', #63 ) ;
#82 = CARTESIAN_POINT ( 'NONE',  ( 12.49999999999999800, -12.49999999999999600, 4.750000000000000000 ) ) ;
#83 = APPLICATION_PROTOCOL_DEFINITION ( 'international standard', 'config_control_design', 1994, #183 ) ;
#84 = APPROVAL ( #5, 'UNSPECIFIED' ) ;
#85 = LINE ( 'NONE', #235, #31 ) ;
#86 = PLANE ( 'NONE',  #194 ) ;
#87 = ORIENTED_EDGE ( 'NONE', *, *, #165, .F. ) ;
#88 = VECTOR ( 'NONE', #24, 1000.000000000000000 ) ;
#89 = DATE_AND_TIME ( #195, #128 ) ;
#90 = PERSON_AND_ORGANIZATION_ROLE ( 'creator' ) ;
#91 = FACE_OUTER_BOUND ( 'NONE', #164, .T. ) ;
#92 = AXIS2_PLACEMENT_3D ( 'NONE', #155, #39, #133 ) ;
#93 = CARTESIAN_POINT ( 'NONE',  ( 12.49999999999999800, -12.49999999999999600, 4.750000000000000000 ) ) ;
#94 = CALENDAR_DATE ( 2017, 30, 10 ) ;
#95 = FACE_OUTER_BOUND ( 'NONE', #113, .T. ) ;
#96 = CARTESIAN_POINT ( 'NONE',  ( 12.49999999999999800, -12.49999999999999600, 4.750000000000000000 ) ) ;
#97 = LOCAL_TIME ( 9, 9, 59.00000000000000000, #146 ) ;
#98 = PLANE ( 'NONE',  #157 ) ;
#99 = PRODUCT_DEFINITION_FORMATION_WITH_SPECIFIED_SOURCE ( 'ANY', '', #163, .NOT_KNOWN. ) ;
#100 = DATE_AND_TIME ( #94, #97 ) ;
#101 = VERTEX_POINT ( 'NONE', #169 ) ;
#102 = CARTESIAN_POINT ( 'NONE',  ( 12.49999999999999800, -12.49999999999999600, 4.750000000000000000 ) ) ;
#103 = COORDINATED_UNIVERSAL_TIME_OFFSET ( 5, 0, .BEHIND. ) ;
#104 = ORIENTED_EDGE ( 'NONE', *, *, #15, .F. ) ;
#105 = APPROVAL_ROLE ( '' ) ;
#106 = VECTOR ( 'NONE', #226, 1000.000000000000000 ) ;
#107 = APPROVAL_ROLE ( '' ) ;
#108 = SECURITY_CLASSIFICATION ( '', '', #123 ) ;
#109 = LOCAL_TIME ( 9, 9, 59.00000000000000000, #12 ) ;
#110 = LINE ( 'NONE', #58, #168 ) ;
#111 = ADVANCED_FACE ( 'NONE', ( #19 ), #59, .F. ) ;
#112 = DIRECTION ( 'NONE',  ( 1.000000000000000000, 1.387778780781445700E-016, -0.0000000000000000000 ) ) ;
#113 = EDGE_LOOP ( 'NONE', ( #51, #87, #197, #127 ) ) ;
#114 = DIRECTION ( 'NONE',  ( -0.0000000000000000000, -0.0000000000000000000, -1.000000000000000000 ) ) ;
#115 = DIRECTION ( 'NONE',  ( 0.0000000000000000000, 0.0000000000000000000, 1.000000000000000000 ) ) ;
#116 = ORIENTED_EDGE ( 'NONE', *, *, #187, .T. ) ;
#117 = ADVANCED_FACE ( 'NONE', ( #159 ), #11, .T. ) ;
#118 =( NAMED_UNIT ( * ) PLANE_ANGLE_UNIT ( ) SI_UNIT ( $, .RADIAN. ) );
#119 = VECTOR ( 'NONE', #114, 1000.000000000000000 ) ;
#120 = APPLICATION_CONTEXT ( 'configuration controlled 3d designs of mechanical parts and assemblies' ) ;
#121 = EDGE_LOOP ( 'NONE', ( #210, #77, #72, #65 ) ) ;
#122 = ORIENTED_EDGE ( 'NONE', *, *, #29, .F. ) ;
#123 = SECURITY_CLASSIFICATION_LEVEL ( 'unclassified' ) ;
#124 = PERSON_AND_ORGANIZATION_ROLE ( 'design_supplier' ) ;
#125 = DATE_TIME_ROLE ( 'creation_date' ) ;
#126 = APPROVAL_DATE_TIME ( #89, #84 ) ;
#127 = ORIENTED_EDGE ( 'NONE', *, *, #71, .T. ) ;
#128 = LOCAL_TIME ( 9, 9, 59.00000000000000000, #222 ) ;
#129 = VECTOR ( 'NONE', #223, 1000.000000000000000 ) ;
#130 = DIRECTION ( 'NONE',  ( 0.0000000000000000000, -0.0000000000000000000, 1.000000000000000000 ) ) ;
#131 = CARTESIAN_POINT ( 'NONE',  ( 12.49999999999999800, -12.49999999999999600, -4.750000000000000000 ) ) ;
#132 = DIRECTION ( 'NONE',  ( 1.000000000000000000, 0.0000000000000000000, -0.0000000000000000000 ) ) ;
#133 = DIRECTION ( 'NONE',  ( 1.000000000000000000, 0.0000000000000000000, -0.0000000000000000000 ) ) ;
#134 = DATE_AND_TIME ( #203, #70 ) ;
#135 = PLANE ( 'NONE',  #189 ) ;
#136 = EDGE_CURVE ( 'NONE', #224, #181, #9, .T. ) ;
#137 = PERSON_AND_ORGANIZATION ( #64, #207 ) ;
#138 = MECHANICAL_CONTEXT ( 'NONE', #120, 'mechanical' ) ;
#139 = VECTOR ( 'NONE', #78, 1000.000000000000000 ) ;
#140 =( LENGTH_UNIT ( ) NAMED_UNIT ( * ) SI_UNIT ( .MILLI., .METRE. ) );
#141 = CC_DESIGN_DATE_AND_TIME_ASSIGNMENT ( #167, #34, ( #108 ) ) ;
#142 = ADVANCED_FACE ( 'NONE', ( #95 ), #98, .F. ) ;
#143 = LOCAL_TIME ( 9, 9, 59.00000000000000000, #158 ) ;
#144 = FACE_OUTER_BOUND ( 'NONE', #121, .T. ) ;
#145 = CC_DESIGN_PERSON_AND_ORGANIZATION_ASSIGNMENT ( #17, #52, ( #32 ) ) ;
#146 = COORDINATED_UNIVERSAL_TIME_OFFSET ( 5, 0, .BEHIND. ) ;
#147 = MANIFOLD_SOLID_BREP ( 'Boss-Extrude1', #229 ) ;
#148 = DIRECTION ( 'NONE',  ( 1.000000000000000000, 1.387778780781445700E-016, 0.0000000000000000000 ) ) ;
#149 = CARTESIAN_POINT ( 'NONE',  ( 12.49999999999999800, -12.49999999999999600, 4.750000000000000000 ) ) ;
#150 = CC_DESIGN_APPROVAL ( #84, ( #32 ) ) ;
#151 = APPROVAL_DATE_TIME ( #174, #161 ) ;
#152 = LINE ( 'NONE', #93, #106 ) ;
#153 = AXIS2_PLACEMENT_3D ( 'NONE', #61, #130, #132 ) ;
#154 = CARTESIAN_POINT ( 'NONE',  ( 12.49999999999999800, 12.50000000000000400, 4.750000000000000000 ) ) ;
#155 = CARTESIAN_POINT ( 'NONE',  ( 0.0000000000000000000, 0.0000000000000000000, 4.750000000000000000 ) ) ;
#156 = DIRECTION ( 'NONE',  ( -1.387778780781445700E-016, 1.000000000000000000, 0.0000000000000000000 ) ) ;
#157 = AXIS2_PLACEMENT_3D ( 'NONE', #192, #79, #115 ) ;
#158 = COORDINATED_UNIVERSAL_TIME_OFFSET ( 5, 0, .BEHIND. ) ;
#159 = FACE_OUTER_BOUND ( 'NONE', #234, .T. ) ;
#160 = CARTESIAN_POINT ( 'NONE',  ( -12.50000000000000200, 12.50000000000000000, 4.750000000000000000 ) ) ;
#161 = APPROVAL ( #4, 'UNSPECIFIED' ) ;
#162 = VECTOR ( 'NONE', #76, 1000.000000000000000 ) ;
#163 = PRODUCT ( 'Web Model 64402MX_43207', 'Web Model 64402MX_43207', '', ( #138 ) ) ;
#164 = EDGE_LOOP ( 'NONE', ( #225, #213, #14, #38 ) ) ;
#165 = EDGE_CURVE ( 'NONE', #180, #81, #3, .T. ) ;
#166 = ORIENTED_EDGE ( 'NONE', *, *, #187, .F. ) ;
#167 = DATE_AND_TIME ( #37, #109 ) ;
#168 = VECTOR ( 'NONE', #36, 1000.000000000000000 ) ;
#169 = CARTESIAN_POINT ( 'NONE',  ( 12.49999999999999800, -12.49999999999999600, -4.750000000000000000 ) ) ;
#170 = CARTESIAN_POINT ( 'NONE',  ( -12.50000000000000200, -12.50000000000000000, -4.750000000000000000 ) ) ;
#171 = LINE ( 'NONE', #149, #74 ) ;
#172 = DIRECTION ( 'NONE',  ( 1.000000000000000000, 1.387778780781445700E-016, -0.0000000000000000000 ) ) ;
#173 = ADVANCED_FACE ( 'NONE', ( #144 ), #135, .F. ) ;
#174 = DATE_AND_TIME ( #80, #143 ) ;
#175 = DIRECTION ( 'NONE',  ( -1.000000000000000000, -1.387778780781445700E-016, 0.0000000000000000000 ) ) ;
#176 = ORIENTED_EDGE ( 'NONE', *, *, #7, .T. ) ;
#177 = DIRECTION ( 'NONE',  ( -1.000000000000000000, -1.387778780781445700E-016, 0.0000000000000000000 ) ) ;
#178 = DIRECTION ( 'NONE',  ( 1.000000000000000000, 0.0000000000000000000, 0.0000000000000000000 ) ) ;
#179 = EDGE_CURVE ( 'NONE', #47, #180, #185, .T. ) ;
#180 = VERTEX_POINT ( 'NONE', #41 ) ;
#181 = VERTEX_POINT ( 'NONE', #10 ) ;
#182 = DIRECTION ( 'NONE',  ( 0.0000000000000000000, 0.0000000000000000000, 1.000000000000000000 ) ) ;
#183 = APPLICATION_CONTEXT ( 'configuration controlled 3d designs of mechanical parts and assemblies' ) ;
#184 = PERSON_AND_ORGANIZATION ( #64, #207 ) ;
#185 = LINE ( 'NONE', #82, #129 ) ;
#186 = APPROVAL_ROLE ( '' ) ;
#187 = EDGE_CURVE ( 'NONE', #180, #224, #188, .T. ) ;
#188 = LINE ( 'NONE', #154, #88 ) ;
#189 = AXIS2_PLACEMENT_3D ( 'NONE', #96, #156, #175 ) ;
#190 = ORIENTED_EDGE ( 'NONE', *, *, #179, .T. ) ;
#191 = SHAPE_DEFINITION_REPRESENTATION ( #211, #205 ) ;
#192 = CARTESIAN_POINT ( 'NONE',  ( 12.49999999999999800, -12.49999999999999600, 4.750000000000000000 ) ) ;
#193 = DESIGN_CONTEXT ( 'detailed design', #183, 'design' ) ;
#194 = AXIS2_PLACEMENT_3D ( 'NONE', #44, #178, #68 ) ;
#195 = CALENDAR_DATE ( 2017, 30, 10 ) ;
#196 = APPLICATION_PROTOCOL_DEFINITION ( 'international standard', 'config_control_design', 1994, #120 ) ;
#197 = ORIENTED_EDGE ( 'NONE', *, *, #179, .F. ) ;
#198 = EDGE_LOOP ( 'NONE', ( #21, #214, #104, #122 ) ) ;
#199 = PLANE ( 'NONE',  #69 ) ;
#200 = CC_DESIGN_PERSON_AND_ORGANIZATION_ASSIGNMENT ( #54, #90, ( #99 ) ) ;
#201 = PERSON_AND_ORGANIZATION ( #64, #207 ) ;
#202 = EDGE_CURVE ( 'NONE', #81, #181, #85, .T. ) ;
#203 = CALENDAR_DATE ( 2017, 30, 10 ) ;
#204 = ORIENTED_EDGE ( 'NONE', *, *, #165, .T. ) ;
#205 = ADVANCED_BREP_SHAPE_REPRESENTATION ( 'Web Model 64402MX_43207', ( #147, #230 ), #216 ) ;
#206 = APPROVAL_STATUS ( 'not_yet_approved' ) ;
#207 = ORGANIZATION ( 'UNSPECIFIED', 'UNSPECIFIED', '' ) ;
#208 = VECTOR ( 'NONE', #172, 1000.000000000000000 ) ;
#209 = VERTEX_POINT ( 'NONE', #232 ) ;
#210 = ORIENTED_EDGE ( 'NONE', *, *, #29, .T. ) ;
#211 = PRODUCT_DEFINITION_SHAPE ( 'NONE', 'NONE',  #32 ) ;
#212 = CARTESIAN_POINT ( 'NONE',  ( 12.49999999999999800, 12.50000000000000400, 4.750000000000000000 ) ) ;
#213 = ORIENTED_EDGE ( 'NONE', *, *, #35, .F. ) ;
#214 = ORIENTED_EDGE ( 'NONE', *, *, #202, .F. ) ;
#215 = LINE ( 'NONE', #57, #50 ) ;
#216 =( GEOMETRIC_REPRESENTATION_CONTEXT ( 3 ) GLOBAL_UNCERTAINTY_ASSIGNED_CONTEXT ( ( #231 ) ) GLOBAL_UNIT_ASSIGNED_CONTEXT ( ( #140, #118, #66 ) ) REPRESENTATION_CONTEXT ( 'NONE', 'WORKASPACE' ) );
#217 = VERTEX_POINT ( 'NONE', #46 ) ;
#218 = DIRECTION ( 'NONE',  ( 1.387778780781445700E-016, -1.000000000000000000, 0.0000000000000000000 ) ) ;
#219 = ORIENTED_EDGE ( 'NONE', *, *, #202, .T. ) ;
#220 = ADVANCED_FACE ( 'NONE', ( #91 ), #86, .F. ) ;
#221 = DIRECTION ( 'NONE',  ( -0.0000000000000000000, -1.000000000000000000, -0.0000000000000000000 ) ) ;
#222 = COORDINATED_UNIVERSAL_TIME_OFFSET ( 5, 0, .BEHIND. ) ;
#223 = DIRECTION ( 'NONE',  ( 0.0000000000000000000, 1.000000000000000000, 0.0000000000000000000 ) ) ;
#224 = VERTEX_POINT ( 'NONE', #160 ) ;
#225 = ORIENTED_EDGE ( 'NONE', *, *, #42, .T. ) ;
#226 = DIRECTION ( 'NONE',  ( -0.0000000000000000000, -0.0000000000000000000, -1.000000000000000000 ) ) ;
#227 = CC_DESIGN_DATE_AND_TIME_ASSIGNMENT ( #134, #125, ( #32 ) ) ;
#228 = APPROVAL_PERSON_ORGANIZATION ( #137, #84, #105 ) ;
#229 = CLOSED_SHELL ( 'NONE', ( #220, #173, #142, #55, #117, #111 ) ) ;
#230 = AXIS2_PLACEMENT_3D ( 'NONE', #25, #182, #48 ) ;
#231 = UNCERTAINTY_MEASURE_WITH_UNIT (LENGTH_MEASURE( 1.000000000000000100E-005 ), #140, 'distance_accuracy_value', 'NONE');
#232 = CARTESIAN_POINT ( 'NONE',  ( -12.50000000000000200, -12.50000000000000000, -4.750000000000000000 ) ) ;
#233 = PERSON_AND_ORGANIZATION ( #64, #207 ) ;
#234 = EDGE_LOOP ( 'NONE', ( #22, #176, #190, #116 ) ) ;
#235 = CARTESIAN_POINT ( 'NONE',  ( 12.49999999999999800, 12.50000000000000400, -4.750000000000000000 ) ) ;
#236 = PRODUCT_RELATED_PRODUCT_CATEGORY ( 'detail', '', ( #163 ) ) ;
#237 = PERSON_AND_ORGANIZATION ( #64, #207 ) ;
ENDSEC;
END-ISO-10303-21;
