ISO-10303-21;
HEADER;
FILE_DESCRIPTION (( 'STEP AP203' ),
    '1' );
FILE_NAME ('step_35939.step',
    '2017-05-22T20:26:07',
    ( '' ),
    ( '' ),
    'SwSTEP 2.0',
    'SolidWorks 2016',
    '' );
FILE_SCHEMA (( 'CONFIG_CONTROL_DESIGN' ));
ENDSEC;

DATA;
#1 = PLANE ( 'NONE',  #125 ) ;
#2 = PRODUCT_DEFINITION_SHAPE ( 'NONE', 'NONE',  #63 ) ;
#3 = CARTESIAN_POINT ( 'NONE',  ( -37.49999999999999300, -37.50000000000001400, 0.0000000000000000000 ) ) ;
#4 = CC_DESIGN_SECURITY_CLASSIFICATION ( #13, ( #39 ) ) ;
#5 = CC_DESIGN_APPROVAL ( #6, ( #13 ) ) ;
#6 = APPROVAL ( #162, 'UNSPECIFIED' ) ;
#7 = CARTESIAN_POINT ( 'NONE',  ( -37.49999999999999300, -37.50000000000001400, 1.000000000000000000 ) ) ;
#8 = EDGE_CURVE ( 'NONE', #151, #188, #134, .T. ) ;
#9 = CARTESIAN_POINT ( 'NONE',  ( 37.50000000000000700, -37.50000000000001400, 1.000000000000000000 ) ) ;
#10 = CC_DESIGN_DATE_AND_TIME_ASSIGNMENT ( #21, #164, ( #13 ) ) ;
#11 = CC_DESIGN_PERSON_AND_ORGANIZATION_ASSIGNMENT ( #30, #165, ( #13 ) ) ;
#12 = DIRECTION ( 'NONE',  ( 1.000000000000000000, 0.0000000000000000000, 0.0000000000000000000 ) ) ;
#13 = SECURITY_CLASSIFICATION ( '', '', #166 ) ;
#14 = APPROVAL_DATE_TIME ( #15, #6 ) ;
#15 = DATE_AND_TIME ( #117, #158 ) ;
#16 = CC_DESIGN_PERSON_AND_ORGANIZATION_ASSIGNMENT ( #36, #78, ( #39 ) ) ;
#17 = DIRECTION ( 'NONE',  ( -9.251858538542970300E-017, 1.000000000000000000, -0.0000000000000000000 ) ) ;
#18 = PLANE ( 'NONE',  #92 ) ;
#19 = APPROVAL_PERSON_ORGANIZATION ( #20, #6, #159 ) ;
#20 = PERSON_AND_ORGANIZATION ( #113, #152 ) ;
#21 = DATE_AND_TIME ( #23, #27 ) ;
#22 = PLANE ( 'NONE',  #217 ) ;
#23 = CALENDAR_DATE ( 2017, 22, 5 ) ;
#24 = CARTESIAN_POINT ( 'NONE',  ( -37.50000000000000700, 37.49999999999999300, 1.000000000000000000 ) ) ;
#25 = CC_DESIGN_PERSON_AND_ORGANIZATION_ASSIGNMENT ( #37, #177, ( #39 ) ) ;
#26 = DIRECTION ( 'NONE',  ( -1.850371707708594100E-016, 1.000000000000000000, 0.0000000000000000000 ) ) ;
#27 = LOCAL_TIME ( 13, 26, 7.000000000000000000, #28 ) ;
#28 = COORDINATED_UNIVERSAL_TIME_OFFSET ( 7, 0, .BEHIND. ) ;
#29 = COORDINATED_UNIVERSAL_TIME_OFFSET ( 7, 0, .BEHIND. ) ;
#30 = PERSON_AND_ORGANIZATION ( #113, #152 ) ;
#31 = CC_DESIGN_APPROVAL ( #34, ( #39 ) ) ;
#32 = PRODUCT ( 'step_35939', 'step_35939', '', ( #219 ) ) ;
#33 = DIRECTION ( 'NONE',  ( -0.0000000000000000000, 0.0000000000000000000, 1.000000000000000000 ) ) ;
#34 = APPROVAL ( #70, 'UNSPECIFIED' ) ;
#35 = ORIENTED_EDGE ( 'NONE', *, *, #228, .T. ) ;
#36 = PERSON_AND_ORGANIZATION ( #113, #152 ) ;
#37 = PERSON_AND_ORGANIZATION ( #113, #152 ) ;
#38 = APPROVAL_DATE_TIME ( #41, #34 ) ;
#39 = PRODUCT_DEFINITION_FORMATION_WITH_SPECIFIED_SOURCE ( 'ANY', '', #32, .NOT_KNOWN. ) ;
#40 = ORIENTED_EDGE ( 'NONE', *, *, #149, .T. ) ;
#41 = DATE_AND_TIME ( #44, #42 ) ;
#42 = LOCAL_TIME ( 13, 26, 7.000000000000000000, #52 ) ;
#43 = CC_DESIGN_DATE_AND_TIME_ASSIGNMENT ( #51, #222, ( #63 ) ) ;
#44 = CALENDAR_DATE ( 2017, 22, 5 ) ;
#45 = APPROVAL_PERSON_ORGANIZATION ( #47, #34, #65 ) ;
#46 = ADVANCED_FACE ( 'NONE', ( #236 ), #189, .F. ) ;
#47 = PERSON_AND_ORGANIZATION ( #113, #152 ) ;
#48 = CC_DESIGN_PERSON_AND_ORGANIZATION_ASSIGNMENT ( #84, #124, ( #63 ) ) ;
#49 = CARTESIAN_POINT ( 'NONE',  ( 0.0000000000000000000, 0.0000000000000000000, 0.0000000000000000000 ) ) ;
#50 = CALENDAR_DATE ( 2017, 22, 5 ) ;
#51 = DATE_AND_TIME ( #50, #230 ) ;
#52 = COORDINATED_UNIVERSAL_TIME_OFFSET ( 7, 0, .BEHIND. ) ;
#53 = CARTESIAN_POINT ( 'NONE',  ( 37.50000000000000000, 37.49999999999999300, 0.0000000000000000000 ) ) ;
#54 = ADVANCED_FACE ( 'NONE', ( #121 ), #22, .F. ) ;
#55 = CC_DESIGN_APPROVAL ( #62, ( #63 ) ) ;
#56 = DIRECTION ( 'NONE',  ( -9.251858538542970300E-017, 1.000000000000000000, -0.0000000000000000000 ) ) ;
#57 = DIRECTION ( 'NONE',  ( 1.850371707708594100E-016, -1.000000000000000000, 0.0000000000000000000 ) ) ;
#58 = APPLICATION_PROTOCOL_DEFINITION ( 'international standard', 'config_control_design', 1994, #109 ) ;
#59 = CARTESIAN_POINT ( 'NONE',  ( 37.50000000000000700, -37.50000000000001400, 0.0000000000000000000 ) ) ;
#60 = CARTESIAN_POINT ( 'NONE',  ( 37.50000000000000000, 37.49999999999999300, 1.000000000000000000 ) ) ;
#61 = CARTESIAN_POINT ( 'NONE',  ( -37.50000000000000700, 37.49999999999999300, 1.000000000000000000 ) ) ;
#62 = APPROVAL ( #209, 'UNSPECIFIED' ) ;
#63 = PRODUCT_DEFINITION ( 'UNKNOWN', '', #39, #101 ) ;
#64 = DIRECTION ( 'NONE',  ( -1.000000000000000000, -9.251858538542970300E-017, 0.0000000000000000000 ) ) ;
#65 = APPROVAL_ROLE ( '' ) ;
#66 = ORIENTED_EDGE ( 'NONE', *, *, #97, .F. ) ;
#67 = CC_DESIGN_PERSON_AND_ORGANIZATION_ASSIGNMENT ( #153, #218, ( #32 ) ) ;
#68 = CARTESIAN_POINT ( 'NONE',  ( -37.50000000000000700, 37.49999999999999300, 0.0000000000000000000 ) ) ;
#69 = AXIS2_PLACEMENT_3D ( 'NONE', #180, #202, #12 ) ;
#70 = APPROVAL_STATUS ( 'not_yet_approved' ) ;
#71 = SHAPE_DEFINITION_REPRESENTATION ( #2, #86 ) ;
#72 = CARTESIAN_POINT ( 'NONE',  ( -37.49999999999999300, -37.50000000000001400, 1.000000000000000000 ) ) ;
#73 = ORIENTED_EDGE ( 'NONE', *, *, #229, .T. ) ;
#74 = CARTESIAN_POINT ( 'NONE',  ( -37.49999999999999300, -37.50000000000001400, 1.000000000000000000 ) ) ;
#75 = ORIENTED_EDGE ( 'NONE', *, *, #199, .T. ) ;
#76 = CARTESIAN_POINT ( 'NONE',  ( -37.50000000000000700, 37.49999999999999300, 0.0000000000000000000 ) ) ;
#77 = ADVANCED_FACE ( 'NONE', ( #145 ), #18, .F. ) ;
#78 = PERSON_AND_ORGANIZATION_ROLE ( 'design_supplier' ) ;
#79 = DIRECTION ( 'NONE',  ( 1.000000000000000000, 0.0000000000000000000, 0.0000000000000000000 ) ) ;
#80 = ORIENTED_EDGE ( 'NONE', *, *, #195, .T. ) ;
#81 = DIRECTION ( 'NONE',  ( 1.000000000000000000, 0.0000000000000000000, 0.0000000000000000000 ) ) ;
#82 = AXIS2_PLACEMENT_3D ( 'NONE', #146, #150, #26 ) ;
#83 =( GEOMETRIC_REPRESENTATION_CONTEXT ( 3 ) GLOBAL_UNCERTAINTY_ASSIGNED_CONTEXT ( ( #163 ) ) GLOBAL_UNIT_ASSIGNED_CONTEXT ( ( #144, #207, #141 ) ) REPRESENTATION_CONTEXT ( 'NONE', 'WORKASPACE' ) );
#84 = PERSON_AND_ORGANIZATION ( #113, #152 ) ;
#85 = CALENDAR_DATE ( 2017, 22, 5 ) ;
#86 = ADVANCED_BREP_SHAPE_REPRESENTATION ( 'step_35939', ( #200, #69 ), #83 ) ;
#87 = LINE ( 'NONE', #72, #167 ) ;
#88 = LINE ( 'NONE', #96, #103 ) ;
#89 = ORIENTED_EDGE ( 'NONE', *, *, #102, .F. ) ;
#90 = DIRECTION ( 'NONE',  ( -0.0000000000000000000, -0.0000000000000000000, -1.000000000000000000 ) ) ;
#91 = DIRECTION ( 'NONE',  ( 9.251858538542970300E-017, -1.000000000000000000, 0.0000000000000000000 ) ) ;
#92 = AXIS2_PLACEMENT_3D ( 'NONE', #235, #234, #111 ) ;
#93 = VECTOR ( 'NONE', #17, 1000.000000000000000 ) ;
#94 = EDGE_LOOP ( 'NONE', ( #75, #155, #225, #206 ) ) ;
#95 = DIRECTION ( 'NONE',  ( -1.000000000000000000, -0.0000000000000000000, -0.0000000000000000000 ) ) ;
#96 = CARTESIAN_POINT ( 'NONE',  ( -37.50000000000000700, 37.49999999999999300, 0.0000000000000000000 ) ) ;
#97 = EDGE_CURVE ( 'NONE', #151, #172, #87, .T. ) ;
#98 = ORIENTED_EDGE ( 'NONE', *, *, #195, .F. ) ;
#99 = PERSON_AND_ORGANIZATION ( #113, #152 ) ;
#100 = EDGE_CURVE ( 'NONE', #175, #211, #130, .T. ) ;
#101 = DESIGN_CONTEXT ( 'detailed design', #216, 'design' ) ;
#102 = EDGE_CURVE ( 'NONE', #138, #214, #147, .T. ) ;
#103 = VECTOR ( 'NONE', #57, 1000.000000000000000 ) ;
#104 = CARTESIAN_POINT ( 'NONE',  ( -37.50000000000000700, 37.49999999999999300, 1.000000000000000000 ) ) ;
#105 = ADVANCED_FACE ( 'NONE', ( #194 ), #233, .T. ) ;
#106 = PRODUCT_RELATED_PRODUCT_CATEGORY ( 'detail', '', ( #32 ) ) ;
#107 = VERTEX_POINT ( 'NONE', #59 ) ;
#108 = ADVANCED_FACE ( 'NONE', ( #131 ), #1, .F. ) ;
#109 = APPLICATION_CONTEXT ( 'configuration controlled 3d designs of mechanical parts and assemblies' ) ;
#110 = VECTOR ( 'NONE', #56, 1000.000000000000000 ) ;
#111 = DIRECTION ( 'NONE',  ( 0.0000000000000000000, -0.0000000000000000000, -1.000000000000000000 ) ) ;
#112 = LINE ( 'NONE', #208, #93 ) ;
#113 = PERSON ( 'UNSPECIFIED', 'UNSPECIFIED', 'UNSPECIFIED', ('UNSPECIFIED'), ('UNSPECIFIED'), ('UNSPECIFIED') ) ;
#114 = CARTESIAN_POINT ( 'NONE',  ( -37.49999999999999300, -37.50000000000001400, 0.0000000000000000000 ) ) ;
#115 = LINE ( 'NONE', #114, #126 ) ;
#116 = VECTOR ( 'NONE', #90, 1000.000000000000000 ) ;
#117 = CALENDAR_DATE ( 2017, 22, 5 ) ;
#118 = FACE_OUTER_BOUND ( 'NONE', #94, .T. ) ;
#119 = LINE ( 'NONE', #168, #116 ) ;
#120 = AXIS2_PLACEMENT_3D ( 'NONE', #129, #127, #186 ) ;
#121 = FACE_OUTER_BOUND ( 'NONE', #122, .T. ) ;
#122 = EDGE_LOOP ( 'NONE', ( #73, #171, #66, #215 ) ) ;
#123 = VECTOR ( 'NONE', #95, 1000.000000000000000 ) ;
#124 = PERSON_AND_ORGANIZATION_ROLE ( 'creator' ) ;
#125 = AXIS2_PLACEMENT_3D ( 'NONE', #178, #64, #91 ) ;
#126 = VECTOR ( 'NONE', #174, 1000.000000000000000 ) ;
#127 = DIRECTION ( 'NONE',  ( -0.0000000000000000000, 0.0000000000000000000, 1.000000000000000000 ) ) ;
#128 = LINE ( 'NONE', #24, #192 ) ;
#129 = CARTESIAN_POINT ( 'NONE',  ( 0.0000000000000000000, 0.0000000000000000000, 1.000000000000000000 ) ) ;
#130 = LINE ( 'NONE', #185, #142 ) ;
#131 = FACE_OUTER_BOUND ( 'NONE', #148, .T. ) ;
#132 = CARTESIAN_POINT ( 'NONE',  ( 37.50000000000000000, 37.49999999999999300, 1.000000000000000000 ) ) ;
#133 = APPROVAL_ROLE ( '' ) ;
#134 = LINE ( 'NONE', #7, #182 ) ;
#135 = EDGE_CURVE ( 'NONE', #138, #175, #140, .T. ) ;
#136 = ORIENTED_EDGE ( 'NONE', *, *, #237, .T. ) ;
#137 = DIRECTION ( 'NONE',  ( 0.0000000000000000000, -0.0000000000000000000, 1.000000000000000000 ) ) ;
#138 = VERTEX_POINT ( 'NONE', #60 ) ;
#139 = LINE ( 'NONE', #53, #110 ) ;
#140 = LINE ( 'NONE', #61, #231 ) ;
#141 =( NAMED_UNIT ( * ) SI_UNIT ( $, .STERADIAN. ) SOLID_ANGLE_UNIT ( ) );
#142 = VECTOR ( 'NONE', #190, 1000.000000000000000 ) ;
#143 = VECTOR ( 'NONE', #203, 1000.000000000000000 ) ;
#144 =( LENGTH_UNIT ( ) NAMED_UNIT ( * ) SI_UNIT ( .MILLI., .METRE. ) );
#145 = FACE_OUTER_BOUND ( 'NONE', #198, .T. ) ;
#146 = CARTESIAN_POINT ( 'NONE',  ( -37.50000000000000700, 37.49999999999999300, 1.000000000000000000 ) ) ;
#147 = LINE ( 'NONE', #132, #143 ) ;
#148 = EDGE_LOOP ( 'NONE', ( #220, #89, #226, #136 ) ) ;
#149 = EDGE_CURVE ( 'NONE', #172, #138, #112, .T. ) ;
#150 = DIRECTION ( 'NONE',  ( 1.000000000000000000, 1.850371707708594100E-016, -0.0000000000000000000 ) ) ;
#151 = VERTEX_POINT ( 'NONE', #176 ) ;
#152 = ORGANIZATION ( 'UNSPECIFIED', 'UNSPECIFIED', '' ) ;
#153 = PERSON_AND_ORGANIZATION ( #113, #152 ) ;
#154 = LOCAL_TIME ( 13, 26, 7.000000000000000000, #160 ) ;
#155 = ORIENTED_EDGE ( 'NONE', *, *, #8, .F. ) ;
#156 = DATE_AND_TIME ( #85, #154 ) ;
#157 = ORIENTED_EDGE ( 'NONE', *, *, #135, .F. ) ;
#158 = LOCAL_TIME ( 13, 26, 7.000000000000000000, #161 ) ;
#159 = APPROVAL_ROLE ( '' ) ;
#160 = COORDINATED_UNIVERSAL_TIME_OFFSET ( 7, 0, .BEHIND. ) ;
#161 = COORDINATED_UNIVERSAL_TIME_OFFSET ( 7, 0, .BEHIND. ) ;
#162 = APPROVAL_STATUS ( 'not_yet_approved' ) ;
#163 = UNCERTAINTY_MEASURE_WITH_UNIT (LENGTH_MEASURE( 1.000000000000000100E-005 ), #144, 'distance_accuracy_value', 'NONE');
#164 = DATE_TIME_ROLE ( 'classification_date' ) ;
#165 = PERSON_AND_ORGANIZATION_ROLE ( 'classification_officer' ) ;
#166 = SECURITY_CLASSIFICATION_LEVEL ( 'unclassified' ) ;
#167 = VECTOR ( 'NONE', #79, 1000.000000000000000 ) ;
#168 = CARTESIAN_POINT ( 'NONE',  ( 37.50000000000000700, -37.50000000000001400, 1.000000000000000000 ) ) ;
#169 = APPROVAL_PERSON_ORGANIZATION ( #99, #62, #133 ) ;
#170 = EDGE_CURVE ( 'NONE', #107, #214, #139, .T. ) ;
#171 = ORIENTED_EDGE ( 'NONE', *, *, #237, .F. ) ;
#172 = VERTEX_POINT ( 'NONE', #9 ) ;
#173 = DIRECTION ( 'NONE',  ( 1.850371707708594100E-016, -1.000000000000000000, 0.0000000000000000000 ) ) ;
#174 = DIRECTION ( 'NONE',  ( 1.000000000000000000, 0.0000000000000000000, 0.0000000000000000000 ) ) ;
#175 = VERTEX_POINT ( 'NONE', #104 ) ;
#176 = CARTESIAN_POINT ( 'NONE',  ( -37.49999999999999300, -37.50000000000001400, 1.000000000000000000 ) ) ;
#177 = PERSON_AND_ORGANIZATION_ROLE ( 'creator' ) ;
#178 = CARTESIAN_POINT ( 'NONE',  ( 37.50000000000000000, 37.49999999999999300, 1.000000000000000000 ) ) ;
#179 = ORIENTED_EDGE ( 'NONE', *, *, #229, .F. ) ;
#180 = CARTESIAN_POINT ( 'NONE',  ( 0.0000000000000000000, 0.0000000000000000000, 0.0000000000000000000 ) ) ;
#181 = ORIENTED_EDGE ( 'NONE', *, *, #102, .T. ) ;
#182 = VECTOR ( 'NONE', #232, 1000.000000000000000 ) ;
#183 = ADVANCED_FACE ( 'NONE', ( #118 ), #223, .F. ) ;
#184 = APPROVAL_DATE_TIME ( #156, #62 ) ;
#185 = CARTESIAN_POINT ( 'NONE',  ( -37.50000000000000700, 37.49999999999999300, 1.000000000000000000 ) ) ;
#186 = DIRECTION ( 'NONE',  ( 1.000000000000000000, 0.0000000000000000000, 0.0000000000000000000 ) ) ;
#187 = ORIENTED_EDGE ( 'NONE', *, *, #100, .F. ) ;
#188 = VERTEX_POINT ( 'NONE', #3 ) ;
#189 = PLANE ( 'NONE',  #227 ) ;
#190 = DIRECTION ( 'NONE',  ( -0.0000000000000000000, -0.0000000000000000000, -1.000000000000000000 ) ) ;
#191 = CLOSED_SHELL ( 'NONE', ( #183, #54, #108, #77, #105, #46 ) ) ;
#192 = VECTOR ( 'NONE', #173, 1000.000000000000000 ) ;
#193 = ORIENTED_EDGE ( 'NONE', *, *, #170, .F. ) ;
#194 = FACE_OUTER_BOUND ( 'NONE', #197, .T. ) ;
#195 = EDGE_CURVE ( 'NONE', #214, #211, #224, .T. ) ;
#196 = ORIENTED_EDGE ( 'NONE', *, *, #199, .F. ) ;
#197 = EDGE_LOOP ( 'NONE', ( #35, #205, #40, #204 ) ) ;
#198 = EDGE_LOOP ( 'NONE', ( #80, #187, #157, #181 ) ) ;
#199 = EDGE_CURVE ( 'NONE', #211, #188, #88, .T. ) ;
#200 = MANIFOLD_SOLID_BREP ( 'Boss-Extrude1', #191 ) ;
#201 = EDGE_LOOP ( 'NONE', ( #196, #98, #193, #179 ) ) ;
#202 = DIRECTION ( 'NONE',  ( 0.0000000000000000000, 0.0000000000000000000, 1.000000000000000000 ) ) ;
#203 = DIRECTION ( 'NONE',  ( -0.0000000000000000000, -0.0000000000000000000, -1.000000000000000000 ) ) ;
#204 = ORIENTED_EDGE ( 'NONE', *, *, #135, .T. ) ;
#205 = ORIENTED_EDGE ( 'NONE', *, *, #97, .T. ) ;
#206 = ORIENTED_EDGE ( 'NONE', *, *, #100, .T. ) ;
#207 =( NAMED_UNIT ( * ) PLANE_ANGLE_UNIT ( ) SI_UNIT ( $, .RADIAN. ) );
#208 = CARTESIAN_POINT ( 'NONE',  ( 37.50000000000000000, 37.49999999999999300, 1.000000000000000000 ) ) ;
#209 = APPROVAL_STATUS ( 'not_yet_approved' ) ;
#210 = APPLICATION_PROTOCOL_DEFINITION ( 'international standard', 'config_control_design', 1994, #216 ) ;
#211 = VERTEX_POINT ( 'NONE', #76 ) ;
#212 = CARTESIAN_POINT ( 'NONE',  ( 37.50000000000000000, 37.49999999999999300, 0.0000000000000000000 ) ) ;
#213 = DIRECTION ( 'NONE',  ( -1.000000000000000000, -0.0000000000000000000, -0.0000000000000000000 ) ) ;
#214 = VERTEX_POINT ( 'NONE', #212 ) ;
#215 = ORIENTED_EDGE ( 'NONE', *, *, #8, .T. ) ;
#216 = APPLICATION_CONTEXT ( 'configuration controlled 3d designs of mechanical parts and assemblies' ) ;
#217 = AXIS2_PLACEMENT_3D ( 'NONE', #74, #221, #137 ) ;
#218 = PERSON_AND_ORGANIZATION_ROLE ( 'design_owner' ) ;
#219 = MECHANICAL_CONTEXT ( 'NONE', #109, 'mechanical' ) ;
#220 = ORIENTED_EDGE ( 'NONE', *, *, #170, .T. ) ;
#221 = DIRECTION ( 'NONE',  ( 0.0000000000000000000, 1.000000000000000000, 0.0000000000000000000 ) ) ;
#222 = DATE_TIME_ROLE ( 'creation_date' ) ;
#223 = PLANE ( 'NONE',  #82 ) ;
#224 = LINE ( 'NONE', #68, #123 ) ;
#225 = ORIENTED_EDGE ( 'NONE', *, *, #228, .F. ) ;
#226 = ORIENTED_EDGE ( 'NONE', *, *, #149, .F. ) ;
#227 = AXIS2_PLACEMENT_3D ( 'NONE', #49, #33, #81 ) ;
#228 = EDGE_CURVE ( 'NONE', #175, #151, #128, .T. ) ;
#229 = EDGE_CURVE ( 'NONE', #188, #107, #115, .T. ) ;
#230 = LOCAL_TIME ( 13, 26, 7.000000000000000000, #29 ) ;
#231 = VECTOR ( 'NONE', #213, 1000.000000000000000 ) ;
#232 = DIRECTION ( 'NONE',  ( -0.0000000000000000000, -0.0000000000000000000, -1.000000000000000000 ) ) ;
#233 = PLANE ( 'NONE',  #120 ) ;
#234 = DIRECTION ( 'NONE',  ( 0.0000000000000000000, -1.000000000000000000, 0.0000000000000000000 ) ) ;
#235 = CARTESIAN_POINT ( 'NONE',  ( -37.50000000000000700, 37.49999999999999300, 1.000000000000000000 ) ) ;
#236 = FACE_OUTER_BOUND ( 'NONE', #201, .T. ) ;
#237 = EDGE_CURVE ( 'NONE', #172, #107, #119, .T. ) ;
ENDSEC;
END-ISO-10303-21;
