ISO-10303-21;
HEADER;
FILE_DESCRIPTION (( 'STEP AP203' ),
    '1' );
FILE_NAME ('68540_68552.step',
    '2017-07-24T14:58:34',
    ( '' ),
    ( '' ),
    'SwSTEP 2.0',
    'SolidWorks 2016',
    '' );
FILE_SCHEMA (( 'CONFIG_CONTROL_DESIGN' ));
ENDSEC;

DATA;
#1 = ORIENTED_EDGE ( 'NONE', *, *, #86, .F. ) ;
#2 = EDGE_CURVE ( 'NONE', #146, #215, #122, .T. ) ;
#3 = DATE_AND_TIME ( #83, #20 ) ;
#4 = CALENDAR_DATE ( 2017, 24, 7 ) ;
#5 = CC_DESIGN_APPROVAL ( #357, ( #29 ) ) ;
#6 = CC_DESIGN_DATE_AND_TIME_ASSIGNMENT ( #3, #331, ( #119 ) ) ;
#7 = DIRECTION ( 'NONE',  ( -1.000000000000000000, 0.0000000000000000000, 0.0000000000000000000 ) ) ;
#8 = LOCAL_TIME ( 10, 58, 34.00000000000000000, #141 ) ;
#9 = CARTESIAN_POINT ( 'NONE',  ( -21.21320343559652200, 0.0000000000000000000, 15.00000000000000000 ) ) ;
#10 = CC_DESIGN_PERSON_AND_ORGANIZATION_ASSIGNMENT ( #334, #275, ( #29 ) ) ;
#11 = CARTESIAN_POINT ( 'NONE',  ( 0.0000000000000000000, 0.0000000000000000000, 15.00000000000000000 ) ) ;
#12 = APPROVAL_STATUS ( 'not_yet_approved' ) ;
#13 = VERTEX_POINT ( 'NONE', #261 ) ;
#14 = EDGE_LOOP ( 'NONE', ( #1, #274, #140 ) ) ;
#15 = APPROVAL ( #356, 'UNSPECIFIED' ) ;
#16 = PERSON_AND_ORGANIZATION_ROLE ( 'design_owner' ) ;
#17 = SECURITY_CLASSIFICATION_LEVEL ( 'unclassified' ) ;
#18 =( GEOMETRIC_REPRESENTATION_CONTEXT ( 3 ) GLOBAL_UNCERTAINTY_ASSIGNED_CONTEXT ( ( #263 ) ) GLOBAL_UNIT_ASSIGNED_CONTEXT ( ( #127, #104, #267 ) ) REPRESENTATION_CONTEXT ( 'NONE', 'WORKASPACE' ) );
#19 = APPLICATION_CONTEXT ( 'configuration controlled 3d designs of mechanical parts and assemblies' ) ;
#20 = LOCAL_TIME ( 10, 58, 34.00000000000000000, #157 ) ;
#21 = DESIGN_CONTEXT ( 'detailed design', #350, 'design' ) ;
#22 = DATE_AND_TIME ( #199, #85 ) ;
#23 = PERSON_AND_ORGANIZATION_ROLE ( 'design_owner' ) ;
#24 = PERSON_AND_ORGANIZATION_ROLE ( 'classification_officer' ) ;
#25 = DATE_TIME_ROLE ( 'classification_date' ) ;
#26 = LOCAL_TIME ( 10, 58, 34.00000000000000000, #315 ) ;
#27 = SECURITY_CLASSIFICATION_LEVEL ( 'unclassified' ) ;
#28 = LOCAL_TIME ( 10, 58, 34.00000000000000000, #108 ) ;
#29 = SECURITY_CLASSIFICATION ( '', '', #251 ) ;
#30 = CC_DESIGN_APPROVAL ( #106, ( #191 ) ) ;
#31 = EDGE_LOOP ( 'NONE', ( #202, #336, #118, #194 ) ) ;
#32 = LOCAL_TIME ( 10, 58, 34.00000000000000000, #87 ) ;
#33 = LINE ( 'NONE', #93, #316 ) ;
#34 = CC_DESIGN_PERSON_AND_ORGANIZATION_ASSIGNMENT ( #145, #159, ( #191 ) ) ;
#35 = PERSON_AND_ORGANIZATION ( #325, #289 ) ;
#36 = AXIS2_PLACEMENT_3D ( 'NONE', #38, #237, #186 ) ;
#37 = LINE ( 'NONE', #314, #61 ) ;
#38 = CARTESIAN_POINT ( 'NONE',  ( -2.995990726013575500E-013, 21.21320343559662200, 15.00000000000000000 ) ) ;
#39 = APPROVAL_DATE_TIME ( #322, #169 ) ;
#40 = CALENDAR_DATE ( 2017, 24, 7 ) ;
#41 = VERTEX_POINT ( 'NONE', #89 ) ;
#42 = ADVANCED_FACE ( 'NONE', ( #255 ), #284, .F. ) ;
#43 = CARTESIAN_POINT ( 'NONE',  ( 15.00000000000026800, -15.00000000000000900, -15.00000000000000000 ) ) ;
#44 = COORDINATED_UNIVERSAL_TIME_OFFSET ( 5, 0, .BEHIND. ) ;
#45 = PERSON_AND_ORGANIZATION ( #325, #289 ) ;
#46 = APPROVAL_ROLE ( '' ) ;
#47 = CC_DESIGN_PERSON_AND_ORGANIZATION_ASSIGNMENT ( #135, #113, ( #119 ) ) ;
#48 = DIRECTION ( 'NONE',  ( 1.000000000000000000, 0.0000000000000000000, 0.0000000000000000000 ) ) ;
#49 =( GEOMETRIC_REPRESENTATION_CONTEXT ( 3 ) GLOBAL_UNCERTAINTY_ASSIGNED_CONTEXT ( ( #203 ) ) GLOBAL_UNIT_ASSIGNED_CONTEXT ( ( #324, #270, #77 ) ) REPRESENTATION_CONTEXT ( 'NONE', 'WORKASPACE' ) );
#50 = APPROVAL_DATE_TIME ( #124, #355 ) ;
#51 = PERSON_AND_ORGANIZATION ( #325, #289 ) ;
#52 = ORIENTED_EDGE ( 'NONE', *, *, #243, .T. ) ;
#53 = AXIS2_PLACEMENT_3D ( 'NONE', #208, #234, #97 ) ;
#54 = APPROVAL_ROLE ( '' ) ;
#55 = APPROVAL ( #130, 'UNSPECIFIED' ) ;
#56 = MANIFOLD_SOLID_BREP ( 'Boss-Extrude1', #227 ) ;
#57 =( REPRESENTATION_RELATIONSHIP ('NONE','NONE', #308, #79 ) REPRESENTATION_RELATIONSHIP_WITH_TRANSFORMATION ( #256 )SHAPE_REPRESENTATION_RELATIONSHIP( ) );
#58 = DATE_AND_TIME ( #129, #277 ) ;
#59 = EDGE_LOOP ( 'NONE', ( #283, #210, #353, #52 ) ) ;
#60 = CALENDAR_DATE ( 2017, 24, 7 ) ;
#61 = VECTOR ( 'NONE', #182, 1000.000000000000000 ) ;
#62 = AXIS2_PLACEMENT_3D ( 'NONE', #11, #317, #292 ) ;
#63 = DATE_AND_TIME ( #201, #260 ) ;
#64 = DIRECTION ( 'NONE',  ( -0.7071067811865513500, 0.7071067811865436900, 0.0000000000000000000 ) ) ;
#65 = CC_DESIGN_SECURITY_CLASSIFICATION ( #29, ( #361 ) ) ;
#66 = ADVANCED_FACE ( 'NONE', ( #318 ), #209, .F. ) ;
#67 = CARTESIAN_POINT ( 'NONE',  ( -2.995990726013575500E-013, 21.21320343559662200, -15.00000000000000000 ) ) ;
#68 = PERSON_AND_ORGANIZATION ( #325, #289 ) ;
#69 = DIRECTION ( 'NONE',  ( 0.0000000000000000000, 0.0000000000000000000, -1.000000000000000000 ) ) ;
#70 = ORIENTED_EDGE ( 'NONE', *, *, #125, .T. ) ;
#71 = PLANE ( 'NONE',  #36 ) ;
#72 = SHAPE_DEFINITION_REPRESENTATION ( #342, #308 ) ;
#73 = CC_DESIGN_APPROVAL ( #88, ( #200 ) ) ;
#74 = DIRECTION ( 'NONE',  ( 0.0000000000000000000, 0.0000000000000000000, 1.000000000000000000 ) ) ;
#75 = MECHANICAL_CONTEXT ( 'NONE', #99, 'mechanical' ) ;
#76 = APPROVAL_ROLE ( '' ) ;
#77 =( NAMED_UNIT ( * ) SI_UNIT ( $, .STERADIAN. ) SOLID_ANGLE_UNIT ( ) );
#78 = SHAPE_DEFINITION_REPRESENTATION ( #216, #79 ) ;
#79 = SHAPE_REPRESENTATION ( '32527', ( #188 ), #18 ) ;
#80 = DATE_TIME_ROLE ( 'creation_date' ) ;
#81 = CC_DESIGN_PERSON_AND_ORGANIZATION_ASSIGNMENT ( #239, #271, ( #302 ) ) ;
#82 = APPROVAL_STATUS ( 'not_yet_approved' ) ;
#83 = CALENDAR_DATE ( 2017, 24, 7 ) ;
#84 = APPROVAL_PERSON_ORGANIZATION ( #334, #357, #54 ) ;
#85 = LOCAL_TIME ( 10, 58, 34.00000000000000000, #294 ) ;
#86 = EDGE_CURVE ( 'NONE', #215, #165, #330, .T. ) ;
#87 = COORDINATED_UNIVERSAL_TIME_OFFSET ( 5, 0, .BEHIND. ) ;
#88 = APPROVAL ( #12, 'UNSPECIFIED' ) ;
#89 = CARTESIAN_POINT ( 'NONE',  ( -2.995990726013575500E-013, 21.21320343559662200, 15.00000000000000000 ) ) ;
#90 = PERSON_AND_ORGANIZATION ( #325, #289 ) ;
#91 = DIRECTION ( 'NONE',  ( 0.0000000000000000000, -0.0000000000000000000, 1.000000000000000000 ) ) ;
#92 = DATE_AND_TIME ( #303, #193 ) ;
#93 = CARTESIAN_POINT ( 'NONE',  ( 21.21320343559655100, 0.0000000000000000000, 15.00000000000000000 ) ) ;
#94 = CARTESIAN_POINT ( 'NONE',  ( 21.21320343559655100, 0.0000000000000000000, -15.00000000000000000 ) ) ;
#95 = APPROVAL ( #198, 'UNSPECIFIED' ) ;
#96 = PERSON_AND_ORGANIZATION ( #325, #289 ) ;
#97 = DIRECTION ( 'NONE',  ( 0.7071067811865513500, -0.7071067811865436900, 0.0000000000000000000 ) ) ;
#98 = VECTOR ( 'NONE', #211, 1000.000000000000000 ) ;
#99 = APPLICATION_CONTEXT ( 'configuration controlled 3d designs of mechanical parts and assemblies' ) ;
#100 = DIRECTION ( 'NONE',  ( 0.0000000000000000000, 0.0000000000000000000, 1.000000000000000000 ) ) ;
#101 = PERSON_AND_ORGANIZATION_ROLE ( 'classification_officer' ) ;
#102 = PERSON_AND_ORGANIZATION ( #325, #289 ) ;
#103 = ORGANIZATION ( 'NAUO-ORG1', 'UNSPECIFIED', 'UNSPECIFIED' ) ;
#104 =( NAMED_UNIT ( * ) PLANE_ANGLE_UNIT ( ) SI_UNIT ( $, .RADIAN. ) );
#105 = DIRECTION ( 'NONE',  ( -0.0000000000000000000, -0.0000000000000000000, -1.000000000000000000 ) ) ;
#106 = APPROVAL ( #320, 'UNSPECIFIED' ) ;
#107 = PERSON_AND_ORGANIZATION_ROLE ( 'creator' ) ;
#108 = COORDINATED_UNIVERSAL_TIME_OFFSET ( 5, 0, .BEHIND. ) ;
#109 = LINE ( 'NONE', #184, #98 ) ;
#110 = APPROVAL_ROLE ( '' ) ;
#111 = APPROVAL_ROLE ( '' ) ;
#112 = CC_DESIGN_APPROVAL ( #95, ( #259 ) ) ;
#113 = PERSON_AND_ORGANIZATION_ROLE ( 'classification_officer' ) ;
#114 = APPROVAL_PERSON_ORGANIZATION ( #135, #355, #111 ) ;
#115 = APPROVAL_PERSON_ORGANIZATION ( #35, #88, #213 ) ;
#116 = APPROVAL_DATE_TIME ( #170, #95 ) ;
#117 = PERSON_AND_ORGANIZATION ( #325, #289 ) ;
#118 = ORIENTED_EDGE ( 'NONE', *, *, #125, .F. ) ;
#119 = SECURITY_CLASSIFICATION ( '', '', #333 ) ;
#120 = EDGE_CURVE ( 'NONE', #345, #13, #37, .T. ) ;
#121 = APPROVAL_DATE_TIME ( #63, #88 ) ;
#122 = LINE ( 'NONE', #233, #226 ) ;
#123 = CC_DESIGN_PERSON_AND_ORGANIZATION_ASSIGNMENT ( #96, #101, ( #343 ) ) ;
#124 = DATE_AND_TIME ( #321, #28 ) ;
#125 = EDGE_CURVE ( 'NONE', #41, #345, #205, .T. ) ;
#126 = CARTESIAN_POINT ( 'NONE',  ( 0.0000000000000000000, 0.0000000000000000000, -15.00000000000000000 ) ) ;
#127 =( LENGTH_UNIT ( ) NAMED_UNIT ( * ) SI_UNIT ( .MILLI., .METRE. ) );
#128 = CC_DESIGN_PERSON_AND_ORGANIZATION_ASSIGNMENT ( #102, #276, ( #259 ) ) ;
#129 = CALENDAR_DATE ( 2017, 24, 7 ) ;
#130 = APPROVAL_STATUS ( 'not_yet_approved' ) ;
#131 = DIRECTION ( 'NONE',  ( 0.0000000000000000000, 0.0000000000000000000, 1.000000000000000000 ) ) ;
#132 = DIRECTION ( 'NONE',  ( -0.7071067811865513500, -0.7071067811865436900, 0.0000000000000000000 ) ) ;
#133 = EDGE_CURVE ( 'NONE', #13, #41, #323, .T. ) ;
#134 = CARTESIAN_POINT ( 'NONE',  ( -21.21320343559652200, 0.0000000000000000000, -15.00000000000000000 ) ) ;
#135 = PERSON_AND_ORGANIZATION ( #161, #103 ) ;
#136 = LOCAL_TIME ( 10, 58, 34.00000000000000000, #280 ) ;
#137 = ORIENTED_EDGE ( 'NONE', *, *, #133, .F. ) ;
#138 = AXIS2_PLACEMENT_3D ( 'NONE', #240, #74, #132 ) ;
#139 = APPROVAL_ROLE ( '' ) ;
#140 = ORIENTED_EDGE ( 'NONE', *, *, #332, .F. ) ;
#141 = COORDINATED_UNIVERSAL_TIME_OFFSET ( 5, 0, .BEHIND. ) ;
#142 = PERSON_AND_ORGANIZATION ( #325, #289 ) ;
#143 = FACE_OUTER_BOUND ( 'NONE', #149, .T. ) ;
#144 = CC_DESIGN_SECURITY_CLASSIFICATION ( #343, ( #191 ) ) ;
#145 = PERSON_AND_ORGANIZATION ( #325, #289 ) ;
#146 = VERTEX_POINT ( 'NONE', #94 ) ;
#147 = SECURITY_CLASSIFICATION ( '', '', #27 ) ;
#148 = CARTESIAN_POINT ( 'NONE',  ( 21.21320343559655100, 0.0000000000000000000, 15.00000000000000000 ) ) ;
#149 = EDGE_LOOP ( 'NONE', ( #70, #162, #269 ) ) ;
#150 = DIRECTION ( 'NONE',  ( -0.0000000000000000000, -0.0000000000000000000, -1.000000000000000000 ) ) ;
#151 = ADVANCED_FACE ( 'NONE', ( #187 ), #349, .T. ) ;
#152 = CC_DESIGN_APPROVAL ( #355, ( #119 ) ) ;
#153 = CALENDAR_DATE ( 2017, 24, 7 ) ;
#154 = ADVANCED_FACE ( 'NONE', ( #347 ), #71, .F. ) ;
#155 = APPROVAL_ROLE ( '' ) ;
#156 = CARTESIAN_POINT ( 'NONE',  ( 0.0000000000000000000, 0.0000000000000000000, 0.0000000000000000000 ) ) ;
#157 = COORDINATED_UNIVERSAL_TIME_OFFSET ( 5, 0, .BEHIND. ) ;
#158 = APPROVAL_PERSON_ORGANIZATION ( #90, #169, #139 ) ;
#159 = PERSON_AND_ORGANIZATION_ROLE ( 'creator' ) ;
#160 = DATE_AND_TIME ( #153, #220 ) ;
#161 = PERSON ( 'NAUO-PER1', 'UNSPECIFIED', 'UNSPECIFIED', ('UNSPECIFIED'), ('UNSPECIFIED'), ('UNSPECIFIED') ) ;
#162 = ORIENTED_EDGE ( 'NONE', *, *, #120, .T. ) ;
#163 = PRODUCT_RELATED_PRODUCT_CATEGORY ( 'detail', '', ( #247 ) ) ;
#164 = APPROVAL_DATE_TIME ( #173, #106 ) ;
#165 = VERTEX_POINT ( 'NONE', #288 ) ;
#166 = ORIENTED_EDGE ( 'NONE', *, *, #281, .T. ) ;
#167 =( REPRESENTATION_RELATIONSHIP ('NONE','NONE', #308, #79 ) REPRESENTATION_RELATIONSHIP_WITH_TRANSFORMATION ( #310 )SHAPE_REPRESENTATION_RELATIONSHIP( ) );
#168 = DESIGN_CONTEXT ( 'detailed design', #296, 'design' ) ;
#169 = APPROVAL ( #82, 'UNSPECIFIED' ) ;
#170 = DATE_AND_TIME ( #60, #204 ) ;
#171 = DATE_AND_TIME ( #244, #8 ) ;
#172 = PERSON_AND_ORGANIZATION ( #325, #289 ) ;
#173 = DATE_AND_TIME ( #236, #32 ) ;
#174 = VECTOR ( 'NONE', #287, 1000.000000000000000 ) ;
#175 = CC_DESIGN_PERSON_AND_ORGANIZATION_ASSIGNMENT ( #51, #16, ( #247 ) ) ;
#176 = AXIS2_PLACEMENT_3D ( 'NONE', #126, #69, #7 ) ;
#177 = COORDINATED_UNIVERSAL_TIME_OFFSET ( 5, 0, .BEHIND. ) ;
#178 = COORDINATED_UNIVERSAL_TIME_OFFSET ( 5, 0, .BEHIND. ) ;
#179 = VECTOR ( 'NONE', #293, 1000.000000000000000 ) ;
#180 = PRODUCT_DEFINITION_SHAPE ( 'NONE', 'NONE',  #361 ) ;
#181 = ADVANCED_FACE ( 'NONE', ( #143 ), #312, .F. ) ;
#182 = DIRECTION ( 'NONE',  ( 1.000000000000000000, 0.0000000000000000000, 0.0000000000000000000 ) ) ;
#183 = DIRECTION ( 'NONE',  ( 0.0000000000000000000, 1.000000000000000000, 0.0000000000000000000 ) ) ;
#184 = CARTESIAN_POINT ( 'NONE',  ( -2.995990726013575500E-013, 21.21320343559662200, 15.00000000000000000 ) ) ;
#185 = LOCAL_TIME ( 10, 58, 34.00000000000000000, #265 ) ;
#186 = DIRECTION ( 'NONE',  ( 0.7071067811865409100, 0.7071067811865541200, 0.0000000000000000000 ) ) ;
#187 = FACE_OUTER_BOUND ( 'NONE', #14, .T. ) ;
#188 = AXIS2_PLACEMENT_3D ( 'NONE', #218, #297, #242 ) ;
#189 = DIRECTION ( 'NONE',  ( 1.000000000000000000, 0.0000000000000000000, 0.0000000000000000000 ) ) ;
#190 = CARTESIAN_POINT ( 'NONE',  ( 0.0000000000000000000, 0.0000000000000000000, 0.0000000000000000000 ) ) ;
#191 = PRODUCT_DEFINITION_FORMATION_WITH_SPECIFIED_SOURCE ( 'ANY', '', #247, .NOT_KNOWN. ) ;
#192 = DIRECTION ( 'NONE',  ( 0.0000000000000000000, 0.0000000000000000000, 1.000000000000000000 ) ) ;
#193 = LOCAL_TIME ( 10, 58, 34.00000000000000000, #44 ) ;
#194 = ORIENTED_EDGE ( 'NONE', *, *, #313, .T. ) ;
#195 = PERSON_AND_ORGANIZATION_ROLE ( 'design_supplier' ) ;
#196 = DIRECTION ( 'NONE',  ( 1.000000000000000000, 0.0000000000000000000, 0.0000000000000000000 ) ) ;
#197 = DATE_AND_TIME ( #304, #279 ) ;
#198 = APPROVAL_STATUS ( 'not_yet_approved' ) ;
#199 = CALENDAR_DATE ( 2017, 24, 7 ) ;
#200 = PRODUCT_DEFINITION ( 'UNKNOWN', '', #259, #21 ) ;
#201 = CALENDAR_DATE ( 2017, 24, 7 ) ;
#202 = ORIENTED_EDGE ( 'NONE', *, *, #86, .T. ) ;
#203 = UNCERTAINTY_MEASURE_WITH_UNIT (LENGTH_MEASURE( 1.000000000000000100E-005 ), #324, 'distance_accuracy_value', 'NONE');
#204 = LOCAL_TIME ( 10, 58, 34.00000000000000000, #177 ) ;
#205 = LINE ( 'NONE', #264, #179 ) ;
#206 = APPROVAL_DATE_TIME ( #273, #15 ) ;
#207 = AXIS2_PLACEMENT_3D ( 'NONE', #190, #100, #196 ) ;
#208 = CARTESIAN_POINT ( 'NONE',  ( 21.21320343559655100, 0.0000000000000000000, 15.00000000000000000 ) ) ;
#209 = PLANE ( 'NONE',  #225 ) ;
#210 = ORIENTED_EDGE ( 'NONE', *, *, #281, .F. ) ;
#211 = DIRECTION ( 'NONE',  ( -0.0000000000000000000, -0.0000000000000000000, -1.000000000000000000 ) ) ;
#212 = CC_DESIGN_PERSON_AND_ORGANIZATION_ASSIGNMENT ( #45, #107, ( #200 ) ) ;
#213 = APPROVAL_ROLE ( '' ) ;
#214 = SHAPE_REPRESENTATION_RELATIONSHIP ( 'NONE' , 'NONE' ,  #79, #285 ) ;
#215 = VERTEX_POINT ( 'NONE', #67 ) ;
#216 = PRODUCT_DEFINITION_SHAPE ( 'NONE', 'NONE',  #200 ) ;
#217 = DATE_TIME_ROLE ( 'classification_date' ) ;
#218 = CARTESIAN_POINT ( 'NONE',  ( 0.0000000000000000000, 0.0000000000000000000, 0.0000000000000000000 ) ) ;
#219 = APPLICATION_PROTOCOL_DEFINITION ( 'international standard', 'config_control_design', 1994, #350 ) ;
#220 = LOCAL_TIME ( 10, 58, 34.00000000000000000, #230 ) ;
#221 = EDGE_LOOP ( 'NONE', ( #262, #232, #137, #166 ) ) ;
#222 = CC_DESIGN_PERSON_AND_ORGANIZATION_ASSIGNMENT ( #68, #250, ( #259 ) ) ;
#223 = APPROVAL_STATUS ( 'not_yet_approved' ) ;
#224 = PRODUCT_DEFINITION_SHAPE ( 'NONE', 'NONE',  #360 ) ;
#225 = AXIS2_PLACEMENT_3D ( 'NONE', #9, #183, #91 ) ;
#226 = VECTOR ( 'NONE', #64, 1000.000000000000000 ) ;
#227 = CLOSED_SHELL ( 'NONE', ( #154, #66, #42, #181, #151 ) ) ;
#228 = CC_DESIGN_DATE_AND_TIME_ASSIGNMENT ( #160, #217, ( #343 ) ) ;
#229 = CC_DESIGN_DATE_AND_TIME_ASSIGNMENT ( #171, #327, ( #29 ) ) ;
#230 = COORDINATED_UNIVERSAL_TIME_OFFSET ( 5, 0, .BEHIND. ) ;
#231 = VECTOR ( 'NONE', #189, 1000.000000000000000 ) ;
#232 = ORIENTED_EDGE ( 'NONE', *, *, #313, .F. ) ;
#233 = CARTESIAN_POINT ( 'NONE',  ( 21.21320343559655100, 0.0000000000000000000, -15.00000000000000000 ) ) ;
#234 = DIRECTION ( 'NONE',  ( -0.7071067811865436900, -0.7071067811865513500, 0.0000000000000000000 ) ) ;
#235 = APPROVAL_DATE_TIME ( #92, #357 ) ;
#236 = CALENDAR_DATE ( 2017, 24, 7 ) ;
#237 = DIRECTION ( 'NONE',  ( 0.7071067811865541200, -0.7071067811865409100, 0.0000000000000000000 ) ) ;
#238 = DIRECTION ( 'NONE',  ( -0.7071067811865513500, 0.7071067811865436900, 0.0000000000000000000 ) ) ;
#239 = PERSON_AND_ORGANIZATION ( #325, #289 ) ;
#240 = CARTESIAN_POINT ( 'NONE',  ( 15.00000000000028400, -14.99999999999999100, -15.00000000000000000 ) ) ;
#241 = CC_DESIGN_APPROVAL ( #55, ( #302 ) ) ;
#242 = DIRECTION ( 'NONE',  ( 1.000000000000000000, 0.0000000000000000000, 0.0000000000000000000 ) ) ;
#243 = EDGE_CURVE ( 'NONE', #345, #165, #257, .T. ) ;
#244 = CALENDAR_DATE ( 2017, 24, 7 ) ;
#245 = APPLICATION_PROTOCOL_DEFINITION ( 'international standard', 'config_control_design', 1994, #19 ) ;
#246 = DATE_AND_TIME ( #4, #26 ) ;
#247 = PRODUCT ( '68540_68552', '68540_68552', '', ( #75 ) ) ;
#248 = APPLICATION_PROTOCOL_DEFINITION ( 'international standard', 'config_control_design', 1994, #99 ) ;
#249 = PERSON ( 'NAUO-PER2', 'UNSPECIFIED', 'UNSPECIFIED', ('UNSPECIFIED'), ('UNSPECIFIED'), ('UNSPECIFIED') ) ;
#250 = PERSON_AND_ORGANIZATION_ROLE ( 'creator' ) ;
#251 = SECURITY_CLASSIFICATION_LEVEL ( 'unclassified' ) ;
#252 = APPROVAL_STATUS ( 'not_yet_approved' ) ;
#253 = AXIS2_PLACEMENT_3D ( 'NONE', #156, #192, #48 ) ;
#254 = APPROVAL_PERSON_ORGANIZATION ( #344, #95, #110 ) ;
#255 = FACE_OUTER_BOUND ( 'NONE', #221, .T. ) ;
#256 = ITEM_DEFINED_TRANSFORMATION ( 'NONE', 'NONE', #286,  #188 ) ;
#257 = LINE ( 'NONE', #272, #340 ) ;
#258 = CONTEXT_DEPENDENT_SHAPE_REPRESENTATION ( #167, #180 ) ;
#259 = PRODUCT_DEFINITION_FORMATION_WITH_SPECIFIED_SOURCE ( 'ANY', '', #358, .NOT_KNOWN. ) ;
#260 = LOCAL_TIME ( 10, 58, 34.00000000000000000, #268 ) ;
#261 = CARTESIAN_POINT ( 'NONE',  ( 21.21320343559655100, 0.0000000000000000000, 15.00000000000000000 ) ) ;
#262 = ORIENTED_EDGE ( 'NONE', *, *, #2, .T. ) ;
#263 = UNCERTAINTY_MEASURE_WITH_UNIT (LENGTH_MEASURE( 1.000000000000000100E-005 ), #127, 'distance_accuracy_value', 'NONE');
#264 = CARTESIAN_POINT ( 'NONE',  ( -2.995990726013575500E-013, 21.21320343559662200, 15.00000000000000000 ) ) ;
#265 = COORDINATED_UNIVERSAL_TIME_OFFSET ( 5, 0, .BEHIND. ) ;
#266 = CARTESIAN_POINT ( 'NONE',  ( -21.21320343559652200, 0.0000000000000000000, 15.00000000000000000 ) ) ;
#267 =( NAMED_UNIT ( * ) SI_UNIT ( $, .STERADIAN. ) SOLID_ANGLE_UNIT ( ) );
#268 = COORDINATED_UNIVERSAL_TIME_OFFSET ( 5, 0, .BEHIND. ) ;
#269 = ORIENTED_EDGE ( 'NONE', *, *, #133, .T. ) ;
#270 =( NAMED_UNIT ( * ) PLANE_ANGLE_UNIT ( ) SI_UNIT ( $, .RADIAN. ) );
#271 = PERSON_AND_ORGANIZATION_ROLE ( 'creator' ) ;
#272 = CARTESIAN_POINT ( 'NONE',  ( -21.21320343559652200, 0.0000000000000000000, 15.00000000000000000 ) ) ;
#273 = DATE_AND_TIME ( #40, #136 ) ;
#274 = ORIENTED_EDGE ( 'NONE', *, *, #2, .F. ) ;
#275 = PERSON_AND_ORGANIZATION_ROLE ( 'classification_officer' ) ;
#276 = PERSON_AND_ORGANIZATION_ROLE ( 'design_supplier' ) ;
#277 = LOCAL_TIME ( 10, 58, 34.00000000000000000, #352 ) ;
#278 = CC_DESIGN_DATE_AND_TIME_ASSIGNMENT ( #197, #25, ( #147 ) ) ;
#279 = LOCAL_TIME ( 10, 58, 34.00000000000000000, #178 ) ;
#280 = COORDINATED_UNIVERSAL_TIME_OFFSET ( 5, 0, .BEHIND. ) ;
#281 = EDGE_CURVE ( 'NONE', #13, #146, #33, .T. ) ;
#282 = CC_DESIGN_DATE_AND_TIME_ASSIGNMENT ( #246, #300, ( #302 ) ) ;
#283 = ORIENTED_EDGE ( 'NONE', *, *, #332, .T. ) ;
#284 = PLANE ( 'NONE',  #53 ) ;
#285 = ADVANCED_BREP_SHAPE_REPRESENTATION ( '', ( #56, #188 ), #18 ) ;
#286 = AXIS2_PLACEMENT_3D ( 'NONE', #43, #131, #354 ) ;
#287 = DIRECTION ( 'NONE',  ( -0.7071067811865409100, -0.7071067811865541200, 0.0000000000000000000 ) ) ;
#288 = CARTESIAN_POINT ( 'NONE',  ( -21.21320343559652200, 0.0000000000000000000, -15.00000000000000000 ) ) ;
#289 = ORGANIZATION ( 'UNSPECIFIED', 'UNSPECIFIED', '' ) ;
#290 = CARTESIAN_POINT ( 'NONE',  ( -2.995990726013575500E-013, 21.21320343559662200, -15.00000000000000000 ) ) ;
#291 = CC_DESIGN_DATE_AND_TIME_ASSIGNMENT ( #58, #80, ( #200 ) ) ;
#292 = DIRECTION ( 'NONE',  ( -1.000000000000000000, 0.0000000000000000000, 0.0000000000000000000 ) ) ;
#293 = DIRECTION ( 'NONE',  ( -0.7071067811865409100, -0.7071067811865541200, 0.0000000000000000000 ) ) ;
#294 = COORDINATED_UNIVERSAL_TIME_OFFSET ( 5, 0, .BEHIND. ) ;
#295 = CC_DESIGN_SECURITY_CLASSIFICATION ( #147, ( #259 ) ) ;
#296 = APPLICATION_CONTEXT ( 'configuration controlled 3d designs of mechanical parts and assemblies' ) ;
#297 = DIRECTION ( 'NONE',  ( 0.0000000000000000000, 0.0000000000000000000, 1.000000000000000000 ) ) ;
#298 = ORGANIZATION ( 'NAUO-ORG2', 'UNSPECIFIED', 'UNSPECIFIED' ) ;
#299 = APPROVAL_DATE_TIME ( #22, #55 ) ;
#300 = DATE_TIME_ROLE ( 'creation_date' ) ;
#301 = PERSON_AND_ORGANIZATION ( #325, #289 ) ;
#302 = PRODUCT_DEFINITION ( 'UNKNOWN', '', #191, #168 ) ;
#303 = CALENDAR_DATE ( 2017, 24, 7 ) ;
#304 = CALENDAR_DATE ( 2017, 24, 7 ) ;
#305 = CC_DESIGN_APPROVAL ( #15, ( #343 ) ) ;
#306 = APPROVAL_PERSON_ORGANIZATION ( #117, #55, #76 ) ;
#307 = LINE ( 'NONE', #134, #231 ) ;
#308 = SHAPE_REPRESENTATION ( '68540_68552', ( #207, #286, #138 ), #49 ) ;
#309 = PRODUCT_RELATED_PRODUCT_CATEGORY ( 'detail', '', ( #358 ) ) ;
#310 = ITEM_DEFINED_TRANSFORMATION ( 'NONE', 'NONE', #138,  #188 ) ;
#311 = CONTEXT_DEPENDENT_SHAPE_REPRESENTATION ( #57, #224 ) ;
#312 = PLANE ( 'NONE',  #62 ) ;
#313 = EDGE_CURVE ( 'NONE', #41, #215, #109, .T. ) ;
#314 = CARTESIAN_POINT ( 'NONE',  ( -21.21320343559652200, 0.0000000000000000000, 15.00000000000000000 ) ) ;
#315 = COORDINATED_UNIVERSAL_TIME_OFFSET ( 5, 0, .BEHIND. ) ;
#316 = VECTOR ( 'NONE', #150, 1000.000000000000000 ) ;
#317 = DIRECTION ( 'NONE',  ( 0.0000000000000000000, 0.0000000000000000000, -1.000000000000000000 ) ) ;
#318 = FACE_OUTER_BOUND ( 'NONE', #59, .T. ) ;
#319 = CC_DESIGN_PERSON_AND_ORGANIZATION_ASSIGNMENT ( #301, #195, ( #191 ) ) ;
#320 = APPROVAL_STATUS ( 'not_yet_approved' ) ;
#321 = CALENDAR_DATE ( 2017, 24, 7 ) ;
#322 = DATE_AND_TIME ( #339, #185 ) ;
#323 = LINE ( 'NONE', #148, #341 ) ;
#324 =( LENGTH_UNIT ( ) NAMED_UNIT ( * ) SI_UNIT ( .MILLI., .METRE. ) );
#325 = PERSON ( 'UNSPECIFIED', 'UNSPECIFIED', 'UNSPECIFIED', ('UNSPECIFIED'), ('UNSPECIFIED'), ('UNSPECIFIED') ) ;
#326 = MECHANICAL_CONTEXT ( 'NONE', #19, 'mechanical' ) ;
#327 = DATE_TIME_ROLE ( 'classification_date' ) ;
#328 = PERSON_AND_ORGANIZATION ( #325, #289 ) ;
#329 = CC_DESIGN_PERSON_AND_ORGANIZATION_ASSIGNMENT ( #335, #23, ( #358 ) ) ;
#330 = LINE ( 'NONE', #290, #174 ) ;
#331 = DATE_TIME_ROLE ( 'classification_date' ) ;
#332 = EDGE_CURVE ( 'NONE', #165, #146, #307, .T. ) ;
#333 = SECURITY_CLASSIFICATION_LEVEL ( 'unclassified' ) ;
#334 = PERSON_AND_ORGANIZATION ( #249, #298 ) ;
#335 = PERSON_AND_ORGANIZATION ( #325, #289 ) ;
#336 = ORIENTED_EDGE ( 'NONE', *, *, #243, .F. ) ;
#337 = CC_DESIGN_SECURITY_CLASSIFICATION ( #119, ( #360 ) ) ;
#338 = CC_DESIGN_PERSON_AND_ORGANIZATION_ASSIGNMENT ( #328, #24, ( #147 ) ) ;
#339 = CALENDAR_DATE ( 2017, 24, 7 ) ;
#340 = VECTOR ( 'NONE', #105, 1000.000000000000000 ) ;
#341 = VECTOR ( 'NONE', #238, 1000.000000000000000 ) ;
#342 = PRODUCT_DEFINITION_SHAPE ( 'NONE', 'NONE',  #302 ) ;
#343 = SECURITY_CLASSIFICATION ( '', '', #17 ) ;
#344 = PERSON_AND_ORGANIZATION ( #325, #289 ) ;
#345 = VERTEX_POINT ( 'NONE', #266 ) ;
#346 = APPROVAL_PERSON_ORGANIZATION ( #142, #15, #46 ) ;
#347 = FACE_OUTER_BOUND ( 'NONE', #31, .T. ) ;
#348 = CC_DESIGN_APPROVAL ( #169, ( #147 ) ) ;
#349 = PLANE ( 'NONE',  #176 ) ;
#350 = APPLICATION_CONTEXT ( 'configuration controlled 3d designs of mechanical parts and assemblies' ) ;
#351 = APPLICATION_PROTOCOL_DEFINITION ( 'international standard', 'config_control_design', 1994, #296 ) ;
#352 = COORDINATED_UNIVERSAL_TIME_OFFSET ( 5, 0, .BEHIND. ) ;
#353 = ORIENTED_EDGE ( 'NONE', *, *, #120, .F. ) ;
#354 = DIRECTION ( 'NONE',  ( 0.7071067811865513500, 0.7071067811865436900, 0.0000000000000000000 ) ) ;
#355 = APPROVAL ( #223, 'UNKNOWN' ) ;
#356 = APPROVAL_STATUS ( 'not_yet_approved' ) ;
#357 = APPROVAL ( #252, 'UNKNOWN' ) ;
#358 = PRODUCT ( '32527', '32527', '', ( #326 ) ) ;
#359 = APPROVAL_PERSON_ORGANIZATION ( #172, #106, #155 ) ;
#360 = NEXT_ASSEMBLY_USAGE_OCCURRENCE ( 'NAUO1', ' ', ' ', #302, #200, $ ) ;
#361 = NEXT_ASSEMBLY_USAGE_OCCURRENCE ( 'NAUO2', ' ', ' ', #302, #200, $ ) ;
ENDSEC;
END-ISO-10303-21;
