ISO-10303-21;
HEADER;
FILE_DESCRIPTION (( 'STEP AP203' ),
    '1' );
FILE_NAME ('Web Model 55257MX_55260.step',
    '2017-10-30T13:18:26',
    ( '' ),
    ( '' ),
    'SwSTEP 2.0',
    'SolidWorks 2016',
    '' );
FILE_SCHEMA (( 'CONFIG_CONTROL_DESIGN' ));
ENDSEC;

DATA;
#1 = LINE ( 'NONE', #38, #147 ) ;
#2 = CARTESIAN_POINT ( 'NONE',  ( 15.00000000000000400, 15.00000000000000200, 4.750000000000000000 ) ) ;
#3 = EDGE_CURVE ( 'NONE', #117, #23, #1, .T. ) ;
#4 = APPROVAL_PERSON_ORGANIZATION ( #79, #219, #127 ) ;
#5 = CC_DESIGN_PERSON_AND_ORGANIZATION_ASSIGNMENT ( #110, #166, ( #90 ) ) ;
#6 = DATE_AND_TIME ( #151, #133 ) ;
#7 = CARTESIAN_POINT ( 'NONE',  ( -15.00000000000000000, -15.00000000000000400, 4.750000000000000000 ) ) ;
#8 = DIRECTION ( 'NONE',  ( -0.0000000000000000000, -1.000000000000000000, -0.0000000000000000000 ) ) ;
#9 = ORIENTED_EDGE ( 'NONE', *, *, #14, .T. ) ;
#10 = CARTESIAN_POINT ( 'NONE',  ( 15.00000000000000400, -15.00000000000000000, -4.750000000000000000 ) ) ;
#11 = VECTOR ( 'NONE', #101, 1000.000000000000000 ) ;
#12 = CARTESIAN_POINT ( 'NONE',  ( 15.00000000000000400, -15.00000000000000000, 4.750000000000000000 ) ) ;
#13 = APPROVAL_ROLE ( '' ) ;
#14 = EDGE_CURVE ( 'NONE', #117, #162, #107, .T. ) ;
#15 = VERTEX_POINT ( 'NONE', #225 ) ;
#16 = FACE_OUTER_BOUND ( 'NONE', #135, .T. ) ;
#17 = VECTOR ( 'NONE', #228, 1000.000000000000000 ) ;
#18 = EDGE_CURVE ( 'NONE', #43, #85, #204, .T. ) ;
#19 = SHAPE_DEFINITION_REPRESENTATION ( #137, #37 ) ;
#20 = CC_DESIGN_PERSON_AND_ORGANIZATION_ASSIGNMENT ( #102, #109, ( #207 ) ) ;
#21 = ORIENTED_EDGE ( 'NONE', *, *, #124, .F. ) ;
#22 = ADVANCED_FACE ( 'NONE', ( #51 ), #119, .F. ) ;
#23 = VERTEX_POINT ( 'NONE', #56 ) ;
#24 = ADVANCED_FACE ( 'NONE', ( #55 ), #25, .F. ) ;
#25 = PLANE ( 'NONE',  #40 ) ;
#26 = FACE_OUTER_BOUND ( 'NONE', #226, .T. ) ;
#27 = CALENDAR_DATE ( 2017, 30, 10 ) ;
#28 = DIRECTION ( 'NONE',  ( -0.0000000000000000000, -0.0000000000000000000, -1.000000000000000000 ) ) ;
#29 = EDGE_LOOP ( 'NONE', ( #62, #21, #54, #112 ) ) ;
#30 = CARTESIAN_POINT ( 'NONE',  ( 15.00000000000000400, -15.00000000000000000, -4.750000000000000000 ) ) ;
#31 = CARTESIAN_POINT ( 'NONE',  ( -15.00000000000000000, -15.00000000000000400, 4.750000000000000000 ) ) ;
#32 = DIRECTION ( 'NONE',  ( -1.156482317317871500E-016, 1.000000000000000000, 0.0000000000000000000 ) ) ;
#33 = APPROVAL_PERSON_ORGANIZATION ( #80, #99, #13 ) ;
#34 = ORIENTED_EDGE ( 'NONE', *, *, #233, .T. ) ;
#35 = EDGE_CURVE ( 'NONE', #162, #199, #165, .T. ) ;
#36 = ADVANCED_FACE ( 'NONE', ( #16 ), #227, .T. ) ;
#37 = ADVANCED_BREP_SHAPE_REPRESENTATION ( 'Web Model 55257MX_55260', ( #111, #172 ), #222 ) ;
#38 = CARTESIAN_POINT ( 'NONE',  ( -15.00000000000000000, -15.00000000000000400, 4.750000000000000000 ) ) ;
#39 = EDGE_CURVE ( 'NONE', #162, #15, #64, .T. ) ;
#40 = AXIS2_PLACEMENT_3D ( 'NONE', #121, #205, #170 ) ;
#41 = COORDINATED_UNIVERSAL_TIME_OFFSET ( 5, 0, .BEHIND. ) ;
#42 = DIRECTION ( 'NONE',  ( 0.0000000000000000000, 0.0000000000000000000, -1.000000000000000000 ) ) ;
#43 = VERTEX_POINT ( 'NONE', #179 ) ;
#44 = CARTESIAN_POINT ( 'NONE',  ( 15.00000000000000400, -15.00000000000000000, -4.750000000000000000 ) ) ;
#45 = DIRECTION ( 'NONE',  ( -1.000000000000000000, -1.156482317317871500E-016, 0.0000000000000000000 ) ) ;
#46 = VECTOR ( 'NONE', #206, 1000.000000000000000 ) ;
#47 = APPROVAL_STATUS ( 'not_yet_approved' ) ;
#48 = CARTESIAN_POINT ( 'NONE',  ( 15.00000000000000400, -15.00000000000000000, 4.750000000000000000 ) ) ;
#49 = PRODUCT_RELATED_PRODUCT_CATEGORY ( 'detail', '', ( #72 ) ) ;
#50 = PERSON_AND_ORGANIZATION ( #114, #200 ) ;
#51 = FACE_OUTER_BOUND ( 'NONE', #197, .T. ) ;
#52 = PERSON_AND_ORGANIZATION ( #114, #200 ) ;
#53 = DATE_AND_TIME ( #27, #208 ) ;
#54 = ORIENTED_EDGE ( 'NONE', *, *, #39, .F. ) ;
#55 = FACE_OUTER_BOUND ( 'NONE', #181, .T. ) ;
#56 = CARTESIAN_POINT ( 'NONE',  ( -15.00000000000000000, -15.00000000000000400, -4.750000000000000000 ) ) ;
#57 = DIRECTION ( 'NONE',  ( -0.0000000000000000000, -0.0000000000000000000, -1.000000000000000000 ) ) ;
#58 = CC_DESIGN_PERSON_AND_ORGANIZATION_ASSIGNMENT ( #160, #190, ( #207 ) ) ;
#59 = DIRECTION ( 'NONE',  ( -0.0000000000000000000, -0.0000000000000000000, -1.000000000000000000 ) ) ;
#60 = APPROVAL_DATE_TIME ( #69, #99 ) ;
#61 = DIRECTION ( 'NONE',  ( -0.0000000000000000000, -1.000000000000000000, -0.0000000000000000000 ) ) ;
#62 = ORIENTED_EDGE ( 'NONE', *, *, #98, .T. ) ;
#63 = CARTESIAN_POINT ( 'NONE',  ( 15.00000000000000400, -15.00000000000000000, 4.750000000000000000 ) ) ;
#64 = LINE ( 'NONE', #48, #11 ) ;
#65 = APPLICATION_PROTOCOL_DEFINITION ( 'international standard', 'config_control_design', 1994, #87 ) ;
#66 =( LENGTH_UNIT ( ) NAMED_UNIT ( * ) SI_UNIT ( .MILLI., .METRE. ) );
#67 = APPROVAL_ROLE ( '' ) ;
#68 = DATE_TIME_ROLE ( 'classification_date' ) ;
#69 = DATE_AND_TIME ( #201, #173 ) ;
#70 = AXIS2_PLACEMENT_3D ( 'NONE', #2, #187, #123 ) ;
#71 = ORIENTED_EDGE ( 'NONE', *, *, #3, .T. ) ;
#72 = PRODUCT ( 'Web Model 55257MX_55260', 'Web Model 55257MX_55260', '', ( #215 ) ) ;
#73 = VECTOR ( 'NONE', #209, 1000.000000000000000 ) ;
#74 = CC_DESIGN_APPROVAL ( #99, ( #207 ) ) ;
#75 = APPROVAL_DATE_TIME ( #100, #219 ) ;
#76 = ORIENTED_EDGE ( 'NONE', *, *, #14, .F. ) ;
#77 = VERTEX_POINT ( 'NONE', #232 ) ;
#78 = CARTESIAN_POINT ( 'NONE',  ( 15.00000000000000400, -15.00000000000000000, 4.750000000000000000 ) ) ;
#79 = PERSON_AND_ORGANIZATION ( #114, #200 ) ;
#80 = PERSON_AND_ORGANIZATION ( #114, #200 ) ;
#81 = EDGE_CURVE ( 'NONE', #43, #117, #153, .T. ) ;
#82 = CARTESIAN_POINT ( 'NONE',  ( -15.00000000000000000, -15.00000000000000400, -4.750000000000000000 ) ) ;
#83 = UNCERTAINTY_MEASURE_WITH_UNIT (LENGTH_MEASURE( 1.000000000000000100E-005 ), #66, 'distance_accuracy_value', 'NONE');
#84 = DIRECTION ( 'NONE',  ( -1.000000000000000000, 0.0000000000000000000, 0.0000000000000000000 ) ) ;
#85 = VERTEX_POINT ( 'NONE', #230 ) ;
#86 = CARTESIAN_POINT ( 'NONE',  ( 0.0000000000000000000, 0.0000000000000000000, 4.750000000000000000 ) ) ;
#87 = APPLICATION_CONTEXT ( 'configuration controlled 3d designs of mechanical parts and assemblies' ) ;
#88 =( NAMED_UNIT ( * ) PLANE_ANGLE_UNIT ( ) SI_UNIT ( $, .RADIAN. ) );
#89 = LINE ( 'NONE', #164, #73 ) ;
#90 = SECURITY_CLASSIFICATION ( '', '', #105 ) ;
#91 = VECTOR ( 'NONE', #106, 1000.000000000000000 ) ;
#92 = EDGE_CURVE ( 'NONE', #77, #85, #236, .T. ) ;
#93 = AXIS2_PLACEMENT_3D ( 'NONE', #63, #32, #177 ) ;
#94 = PERSON_AND_ORGANIZATION ( #114, #200 ) ;
#95 = ORIENTED_EDGE ( 'NONE', *, *, #81, .T. ) ;
#96 = ADVANCED_FACE ( 'NONE', ( #198 ), #104, .F. ) ;
#97 = VECTOR ( 'NONE', #8, 1000.000000000000000 ) ;
#98 = EDGE_CURVE ( 'NONE', #199, #77, #146, .T. ) ;
#99 = APPROVAL ( #213, 'UNSPECIFIED' ) ;
#100 = DATE_AND_TIME ( #155, #195 ) ;
#101 = DIRECTION ( 'NONE',  ( 0.0000000000000000000, 1.000000000000000000, 0.0000000000000000000 ) ) ;
#102 = PERSON_AND_ORGANIZATION ( #114, #200 ) ;
#103 = DIRECTION ( 'NONE',  ( 1.000000000000000000, 0.0000000000000000000, -0.0000000000000000000 ) ) ;
#104 = PLANE ( 'NONE',  #93 ) ;
#105 = SECURITY_CLASSIFICATION_LEVEL ( 'unclassified' ) ;
#106 = DIRECTION ( 'NONE',  ( 0.0000000000000000000, 1.000000000000000000, 0.0000000000000000000 ) ) ;
#107 = LINE ( 'NONE', #78, #46 ) ;
#108 = CARTESIAN_POINT ( 'NONE',  ( 0.0000000000000000000, 0.0000000000000000000, 0.0000000000000000000 ) ) ;
#109 = PERSON_AND_ORGANIZATION_ROLE ( 'creator' ) ;
#110 = PERSON_AND_ORGANIZATION ( #114, #200 ) ;
#111 = MANIFOLD_SOLID_BREP ( 'Boss-Extrude1', #203 ) ;
#112 = ORIENTED_EDGE ( 'NONE', *, *, #35, .T. ) ;
#113 = VECTOR ( 'NONE', #57, 1000.000000000000000 ) ;
#114 = PERSON ( 'UNSPECIFIED', 'UNSPECIFIED', 'UNSPECIFIED', ('UNSPECIFIED'), ('UNSPECIFIED'), ('UNSPECIFIED') ) ;
#115 = APPROVAL ( #229, 'UNSPECIFIED' ) ;
#116 = COORDINATED_UNIVERSAL_TIME_OFFSET ( 5, 0, .BEHIND. ) ;
#117 = VERTEX_POINT ( 'NONE', #7 ) ;
#118 = ORIENTED_EDGE ( 'NONE', *, *, #3, .F. ) ;
#119 = PLANE ( 'NONE',  #70 ) ;
#120 = CARTESIAN_POINT ( 'NONE',  ( -15.00000000000000000, 14.99999999999999800, 4.750000000000000000 ) ) ;
#121 = CARTESIAN_POINT ( 'NONE',  ( 0.0000000000000000000, 0.0000000000000000000, -4.750000000000000000 ) ) ;
#122 = LINE ( 'NONE', #82, #136 ) ;
#123 = DIRECTION ( 'NONE',  ( 1.000000000000000000, 1.156482317317871500E-016, 0.0000000000000000000 ) ) ;
#124 = EDGE_CURVE ( 'NONE', #15, #77, #216, .T. ) ;
#125 = CARTESIAN_POINT ( 'NONE',  ( 15.00000000000000400, 15.00000000000000200, -4.750000000000000000 ) ) ;
#126 = ORIENTED_EDGE ( 'NONE', *, *, #124, .T. ) ;
#127 = APPROVAL_ROLE ( '' ) ;
#128 = ORIENTED_EDGE ( 'NONE', *, *, #233, .F. ) ;
#129 = APPLICATION_CONTEXT ( 'configuration controlled 3d designs of mechanical parts and assemblies' ) ;
#130 = CARTESIAN_POINT ( 'NONE',  ( 15.00000000000000400, 15.00000000000000200, 4.750000000000000000 ) ) ;
#131 = FACE_OUTER_BOUND ( 'NONE', #29, .T. ) ;
#132 = CC_DESIGN_APPROVAL ( #219, ( #182 ) ) ;
#133 = LOCAL_TIME ( 9, 18, 26.00000000000000000, #41 ) ;
#134 = CC_DESIGN_SECURITY_CLASSIFICATION ( #90, ( #207 ) ) ;
#135 = EDGE_LOOP ( 'NONE', ( #95, #9, #210, #189 ) ) ;
#136 = VECTOR ( 'NONE', #61, 1000.000000000000000 ) ;
#137 = PRODUCT_DEFINITION_SHAPE ( 'NONE', 'NONE',  #182 ) ;
#138 = LOCAL_TIME ( 9, 18, 26.00000000000000000, #142 ) ;
#139 = ORIENTED_EDGE ( 'NONE', *, *, #18, .T. ) ;
#140 = AXIS2_PLACEMENT_3D ( 'NONE', #31, #167, #42 ) ;
#141 = PLANE ( 'NONE',  #140 ) ;
#142 = COORDINATED_UNIVERSAL_TIME_OFFSET ( 5, 0, .BEHIND. ) ;
#143 = DATE_TIME_ROLE ( 'creation_date' ) ;
#144 = DIRECTION ( 'NONE',  ( 0.0000000000000000000, 0.0000000000000000000, 1.000000000000000000 ) ) ;
#145 = CARTESIAN_POINT ( 'NONE',  ( 15.00000000000000400, -15.00000000000000000, 4.750000000000000000 ) ) ;
#146 = LINE ( 'NONE', #10, #91 ) ;
#147 = VECTOR ( 'NONE', #59, 1000.000000000000000 ) ;
#148 = PLANE ( 'NONE',  #161 ) ;
#149 = VECTOR ( 'NONE', #163, 1000.000000000000000 ) ;
#150 = EDGE_CURVE ( 'NONE', #85, #23, #122, .T. ) ;
#151 = CALENDAR_DATE ( 2017, 30, 10 ) ;
#152 = ORIENTED_EDGE ( 'NONE', *, *, #150, .T. ) ;
#153 = LINE ( 'NONE', #231, #97 ) ;
#154 = CC_DESIGN_PERSON_AND_ORGANIZATION_ASSIGNMENT ( #50, #178, ( #182 ) ) ;
#155 = CALENDAR_DATE ( 2017, 30, 10 ) ;
#156 = APPROVAL_DATE_TIME ( #217, #115 ) ;
#157 = CARTESIAN_POINT ( 'NONE',  ( 15.00000000000000400, -15.00000000000000000, 4.750000000000000000 ) ) ;
#158 = ORIENTED_EDGE ( 'NONE', *, *, #98, .F. ) ;
#159 = LINE ( 'NONE', #44, #149 ) ;
#160 = PERSON_AND_ORGANIZATION ( #114, #200 ) ;
#161 = AXIS2_PLACEMENT_3D ( 'NONE', #145, #84, #144 ) ;
#162 = VERTEX_POINT ( 'NONE', #12 ) ;
#163 = DIRECTION ( 'NONE',  ( 1.000000000000000000, 1.156482317317871500E-016, -0.0000000000000000000 ) ) ;
#164 = CARTESIAN_POINT ( 'NONE',  ( 15.00000000000000400, 15.00000000000000200, 4.750000000000000000 ) ) ;
#165 = LINE ( 'NONE', #157, #113 ) ;
#166 = PERSON_AND_ORGANIZATION_ROLE ( 'classification_officer' ) ;
#167 = DIRECTION ( 'NONE',  ( 1.000000000000000000, 0.0000000000000000000, 0.0000000000000000000 ) ) ;
#168 = ORIENTED_EDGE ( 'NONE', *, *, #150, .F. ) ;
#169 = AXIS2_PLACEMENT_3D ( 'NONE', #86, #175, #103 ) ;
#170 = DIRECTION ( 'NONE',  ( 1.000000000000000000, 0.0000000000000000000, -0.0000000000000000000 ) ) ;
#171 = COORDINATED_UNIVERSAL_TIME_OFFSET ( 5, 0, .BEHIND. ) ;
#172 = AXIS2_PLACEMENT_3D ( 'NONE', #108, #188, #191 ) ;
#173 = LOCAL_TIME ( 9, 18, 26.00000000000000000, #221 ) ;
#174 = ORIENTED_EDGE ( 'NONE', *, *, #220, .F. ) ;
#175 = DIRECTION ( 'NONE',  ( 0.0000000000000000000, -0.0000000000000000000, 1.000000000000000000 ) ) ;
#176 = PERSON_AND_ORGANIZATION_ROLE ( 'design_owner' ) ;
#177 = DIRECTION ( 'NONE',  ( -1.000000000000000000, -1.156482317317871500E-016, 0.0000000000000000000 ) ) ;
#178 = PERSON_AND_ORGANIZATION_ROLE ( 'creator' ) ;
#179 = CARTESIAN_POINT ( 'NONE',  ( -15.00000000000000000, 14.99999999999999800, 4.750000000000000000 ) ) ;
#180 = CC_DESIGN_DATE_AND_TIME_ASSIGNMENT ( #6, #68, ( #90 ) ) ;
#181 = EDGE_LOOP ( 'NONE', ( #168, #211, #158, #128 ) ) ;
#182 = PRODUCT_DEFINITION ( 'UNKNOWN', '', #207, #192 ) ;
#183 = CC_DESIGN_PERSON_AND_ORGANIZATION_ASSIGNMENT ( #52, #176, ( #72 ) ) ;
#184 = CC_DESIGN_APPROVAL ( #115, ( #90 ) ) ;
#185 = VECTOR ( 'NONE', #45, 1000.000000000000000 ) ;
#186 = ORIENTED_EDGE ( 'NONE', *, *, #18, .F. ) ;
#187 = DIRECTION ( 'NONE',  ( 1.156482317317871500E-016, -1.000000000000000000, 0.0000000000000000000 ) ) ;
#188 = DIRECTION ( 'NONE',  ( 0.0000000000000000000, 0.0000000000000000000, 1.000000000000000000 ) ) ;
#189 = ORIENTED_EDGE ( 'NONE', *, *, #220, .T. ) ;
#190 = PERSON_AND_ORGANIZATION_ROLE ( 'design_supplier' ) ;
#191 = DIRECTION ( 'NONE',  ( 1.000000000000000000, 0.0000000000000000000, 0.0000000000000000000 ) ) ;
#192 = DESIGN_CONTEXT ( 'detailed design', #87, 'design' ) ;
#193 = VECTOR ( 'NONE', #28, 1000.000000000000000 ) ;
#194 = CC_DESIGN_DATE_AND_TIME_ASSIGNMENT ( #53, #143, ( #182 ) ) ;
#195 = LOCAL_TIME ( 9, 18, 26.00000000000000000, #171 ) ;
#196 = CALENDAR_DATE ( 2017, 30, 10 ) ;
#197 = EDGE_LOOP ( 'NONE', ( #237, #186, #174, #126 ) ) ;
#198 = FACE_OUTER_BOUND ( 'NONE', #218, .T. ) ;
#199 = VERTEX_POINT ( 'NONE', #30 ) ;
#200 = ORGANIZATION ( 'UNSPECIFIED', 'UNSPECIFIED', '' ) ;
#201 = CALENDAR_DATE ( 2017, 30, 10 ) ;
#202 = ADVANCED_FACE ( 'NONE', ( #131 ), #148, .F. ) ;
#203 = CLOSED_SHELL ( 'NONE', ( #223, #96, #202, #22, #36, #24 ) ) ;
#204 = LINE ( 'NONE', #120, #193 ) ;
#205 = DIRECTION ( 'NONE',  ( 0.0000000000000000000, -0.0000000000000000000, 1.000000000000000000 ) ) ;
#206 = DIRECTION ( 'NONE',  ( 1.000000000000000000, 1.156482317317871500E-016, -0.0000000000000000000 ) ) ;
#207 = PRODUCT_DEFINITION_FORMATION_WITH_SPECIFIED_SOURCE ( 'ANY', '', #72, .NOT_KNOWN. ) ;
#208 = LOCAL_TIME ( 9, 18, 26.00000000000000000, #116 ) ;
#209 = DIRECTION ( 'NONE',  ( -1.000000000000000000, -1.156482317317871500E-016, 0.0000000000000000000 ) ) ;
#210 = ORIENTED_EDGE ( 'NONE', *, *, #39, .T. ) ;
#211 = ORIENTED_EDGE ( 'NONE', *, *, #92, .F. ) ;
#212 =( NAMED_UNIT ( * ) SI_UNIT ( $, .STERADIAN. ) SOLID_ANGLE_UNIT ( ) );
#213 = APPROVAL_STATUS ( 'not_yet_approved' ) ;
#214 = APPLICATION_PROTOCOL_DEFINITION ( 'international standard', 'config_control_design', 1994, #129 ) ;
#215 = MECHANICAL_CONTEXT ( 'NONE', #129, 'mechanical' ) ;
#216 = LINE ( 'NONE', #130, #17 ) ;
#217 = DATE_AND_TIME ( #196, #138 ) ;
#218 = EDGE_LOOP ( 'NONE', ( #34, #235, #76, #71 ) ) ;
#219 = APPROVAL ( #47, 'UNSPECIFIED' ) ;
#220 = EDGE_CURVE ( 'NONE', #15, #43, #89, .T. ) ;
#221 = COORDINATED_UNIVERSAL_TIME_OFFSET ( 5, 0, .BEHIND. ) ;
#222 =( GEOMETRIC_REPRESENTATION_CONTEXT ( 3 ) GLOBAL_UNCERTAINTY_ASSIGNED_CONTEXT ( ( #83 ) ) GLOBAL_UNIT_ASSIGNED_CONTEXT ( ( #66, #88, #212 ) ) REPRESENTATION_CONTEXT ( 'NONE', 'WORKASPACE' ) );
#223 = ADVANCED_FACE ( 'NONE', ( #26 ), #141, .F. ) ;
#224 = ORIENTED_EDGE ( 'NONE', *, *, #81, .F. ) ;
#225 = CARTESIAN_POINT ( 'NONE',  ( 15.00000000000000400, 15.00000000000000200, 4.750000000000000000 ) ) ;
#226 = EDGE_LOOP ( 'NONE', ( #152, #118, #224, #139 ) ) ;
#227 = PLANE ( 'NONE',  #169 ) ;
#228 = DIRECTION ( 'NONE',  ( -0.0000000000000000000, -0.0000000000000000000, -1.000000000000000000 ) ) ;
#229 = APPROVAL_STATUS ( 'not_yet_approved' ) ;
#230 = CARTESIAN_POINT ( 'NONE',  ( -15.00000000000000000, 14.99999999999999800, -4.750000000000000000 ) ) ;
#231 = CARTESIAN_POINT ( 'NONE',  ( -15.00000000000000000, -15.00000000000000400, 4.750000000000000000 ) ) ;
#232 = CARTESIAN_POINT ( 'NONE',  ( 15.00000000000000400, 15.00000000000000200, -4.750000000000000000 ) ) ;
#233 = EDGE_CURVE ( 'NONE', #23, #199, #159, .T. ) ;
#234 = APPROVAL_PERSON_ORGANIZATION ( #94, #115, #67 ) ;
#235 = ORIENTED_EDGE ( 'NONE', *, *, #35, .F. ) ;
#236 = LINE ( 'NONE', #125, #185 ) ;
#237 = ORIENTED_EDGE ( 'NONE', *, *, #92, .T. ) ;
ENDSEC;
END-ISO-10303-21;
