ISO-10303-21;
HEADER;
FILE_DESCRIPTION (( 'STEP AP203' ),
    '1' );
FILE_NAME ('Web Model 63209_14820.step',
    '2020-10-07T17:39:30',
    ( '' ),
    ( '' ),
    'SwSTEP 2.0',
    'SolidWorks 2018',
    '' );
FILE_SCHEMA (( 'CONFIG_CONTROL_DESIGN' ));
ENDSEC;

DATA;
#1 = FACE_OUTER_BOUND ( 'NONE', #21, .T. ) ;
#2 = CARTESIAN_POINT ( 'NONE',  ( 0.0000000000000000000, 0.0000000000000000000, 3.000000000000000000 ) ) ;
#3 = CALENDAR_DATE ( 2020, 7, 10 ) ;
#4 = PLANE ( 'NONE',  #43 ) ;
#5 = DESIGN_CONTEXT ( 'detailed design', #168, 'design' ) ;
#6 = CARTESIAN_POINT ( 'NONE',  ( 20.00000000000000000, 2.449293598294706513E-15, 3.000000000000000000 ) ) ;
#7 = UNCERTAINTY_MEASURE_WITH_UNIT (LENGTH_MEASURE( 1.000000000000000082E-05 ), #35, 'distance_accuracy_value', 'NONE');
#8 = ORIENTED_EDGE ( 'NONE', *, *, #122, .T. ) ;
#9 = CALENDAR_DATE ( 2020, 7, 10 ) ;
#10 = APPROVAL_ROLE ( '' ) ;
#11 = AXIS2_PLACEMENT_3D ( 'NONE', #104, #118, #18 ) ;
#12 = APPROVAL_PERSON_ORGANIZATION ( #52, #60, #146 ) ;
#13 = ORGANIZATION ( 'UNSPECIFIED', 'UNSPECIFIED', '' ) ;
#14 = CIRCLE ( 'NONE', #132, 20.00000000000000000 ) ;
#15 = CALENDAR_DATE ( 2020, 7, 10 ) ;
#16 = AXIS2_PLACEMENT_3D ( 'NONE', #138, #62, #69 ) ;
#17 = DIRECTION ( 'NONE',  ( -0.0000000000000000000, -0.0000000000000000000, -1.000000000000000000 ) ) ;
#18 = DIRECTION ( 'NONE',  ( 1.000000000000000000, 0.0000000000000000000, -0.0000000000000000000 ) ) ;
#19 = EDGE_CURVE ( 'NONE', #111, #145, #149, .T. ) ;
#20 = CALENDAR_DATE ( 2020, 7, 10 ) ;
#21 = EDGE_LOOP ( 'NONE', ( #170, #130, #156, #8 ) ) ;
#22 = PERSON_AND_ORGANIZATION_ROLE ( 'creator' ) ;
#23 = CARTESIAN_POINT ( 'NONE',  ( -20.00000000000000000, 0.0000000000000000000, 3.000000000000000000 ) ) ;
#24 = SECURITY_CLASSIFICATION_LEVEL ( 'unclassified' ) ;
#25 = PERSON_AND_ORGANIZATION_ROLE ( 'creator' ) ;
#26 = CYLINDRICAL_SURFACE ( 'NONE', #121, 20.00000000000000000 ) ;
#27 = LOCAL_TIME ( 13, 39, 30.00000000000000000, #173 ) ;
#28 = ORIENTED_EDGE ( 'NONE', *, *, #162, .F. ) ;
#29 = CC_DESIGN_PERSON_AND_ORGANIZATION_ASSIGNMENT ( #90, #135, ( #78 ) ) ;
#30 = EDGE_CURVE ( 'NONE', #71, #111, #136, .T. ) ;
#31 = LOCAL_TIME ( 13, 39, 30.00000000000000000, #36 ) ;
#32 = CARTESIAN_POINT ( 'NONE',  ( 0.0000000000000000000, 0.0000000000000000000, 0.0000000000000000000 ) ) ;
#33 = LOCAL_TIME ( 13, 39, 30.00000000000000000, #38 ) ;
#34 = CARTESIAN_POINT ( 'NONE',  ( 0.0000000000000000000, 0.0000000000000000000, 3.000000000000000000 ) ) ;
#35 =( LENGTH_UNIT ( ) NAMED_UNIT ( * ) SI_UNIT ( .MILLI., .METRE. ) );
#36 = COORDINATED_UNIVERSAL_TIME_OFFSET ( 5, 0, .BEHIND. ) ;
#37 = MECHANICAL_CONTEXT ( 'NONE', #157, 'mechanical' ) ;
#38 = COORDINATED_UNIVERSAL_TIME_OFFSET ( 5, 0, .BEHIND. ) ;
#39 = CIRCLE ( 'NONE', #108, 20.00000000000000000 ) ;
#40 = ORIENTED_EDGE ( 'NONE', *, *, #91, .T. ) ;
#41 = APPROVAL_DATE_TIME ( #174, #151 ) ;
#42 = DATE_TIME_ROLE ( 'creation_date' ) ;
#43 = AXIS2_PLACEMENT_3D ( 'NONE', #32, #140, #131 ) ;
#44 = CC_DESIGN_DATE_AND_TIME_ASSIGNMENT ( #166, #42, ( #110 ) ) ;
#45 = DIRECTION ( 'NONE',  ( 0.0000000000000000000, 0.0000000000000000000, 1.000000000000000000 ) ) ;
#46 = VECTOR ( 'NONE', #95, 1000.000000000000000 ) ;
#47 = VERTEX_POINT ( 'NONE', #116 ) ;
#48 =( GEOMETRIC_REPRESENTATION_CONTEXT ( 3 ) GLOBAL_UNCERTAINTY_ASSIGNED_CONTEXT ( ( #7 ) ) GLOBAL_UNIT_ASSIGNED_CONTEXT ( ( #35, #84, #109 ) ) REPRESENTATION_CONTEXT ( 'NONE', 'WORKASPACE' ) );
#49 = CYLINDRICAL_SURFACE ( 'NONE', #101, 20.00000000000000000 ) ;
#50 = DIRECTION ( 'NONE',  ( 0.0000000000000000000, 0.0000000000000000000, 1.000000000000000000 ) ) ;
#51 = CARTESIAN_POINT ( 'NONE',  ( -20.00000000000000000, 0.0000000000000000000, 3.000000000000000000 ) ) ;
#52 = PERSON_AND_ORGANIZATION ( #119, #13 ) ;
#53 = CARTESIAN_POINT ( 'NONE',  ( -20.00000000000000000, 0.0000000000000000000, 0.0000000000000000000 ) ) ;
#54 = PERSON_AND_ORGANIZATION_ROLE ( 'design_owner' ) ;
#55 = CC_DESIGN_APPROVAL ( #127, ( #154 ) ) ;
#56 = CALENDAR_DATE ( 2020, 7, 10 ) ;
#57 = PERSON_AND_ORGANIZATION ( #119, #13 ) ;
#58 = AXIS2_PLACEMENT_3D ( 'NONE', #2, #61, #79 ) ;
#59 = LOCAL_TIME ( 13, 39, 30.00000000000000000, #92 ) ;
#60 = APPROVAL ( #68, 'UNSPECIFIED' ) ;
#61 = DIRECTION ( 'NONE',  ( 0.0000000000000000000, 0.0000000000000000000, 1.000000000000000000 ) ) ;
#62 = DIRECTION ( 'NONE',  ( 0.0000000000000000000, 0.0000000000000000000, 1.000000000000000000 ) ) ;
#63 = APPROVAL_PERSON_ORGANIZATION ( #76, #151, #169 ) ;
#64 = ADVANCED_FACE ( 'NONE', ( #161 ), #141, .T. ) ;
#65 = DIRECTION ( 'NONE',  ( 1.000000000000000000, 0.0000000000000000000, 0.0000000000000000000 ) ) ;
#66 = CC_DESIGN_PERSON_AND_ORGANIZATION_ASSIGNMENT ( #88, #54, ( #171 ) ) ;
#67 = DATE_AND_TIME ( #20, #27 ) ;
#68 = APPROVAL_STATUS ( 'not_yet_approved' ) ;
#69 = DIRECTION ( 'NONE',  ( 1.000000000000000000, 0.0000000000000000000, 0.0000000000000000000 ) ) ;
#70 = EDGE_LOOP ( 'NONE', ( #74, #80 ) ) ;
#71 = VERTEX_POINT ( 'NONE', #6 ) ;
#72 = CC_DESIGN_APPROVAL ( #60, ( #110 ) ) ;
#73 = APPROVAL_PERSON_ORGANIZATION ( #81, #127, #10 ) ;
#74 = ORIENTED_EDGE ( 'NONE', *, *, #164, .T. ) ;
#75 = DIRECTION ( 'NONE',  ( 1.000000000000000000, 0.0000000000000000000, 0.0000000000000000000 ) ) ;
#76 = PERSON_AND_ORGANIZATION ( #119, #13 ) ;
#77 = SHAPE_DEFINITION_REPRESENTATION ( #112, #152 ) ;
#78 = PRODUCT_DEFINITION_FORMATION_WITH_SPECIFIED_SOURCE ( 'ANY', '', #171, .NOT_KNOWN. ) ;
#79 = DIRECTION ( 'NONE',  ( 1.000000000000000000, 0.0000000000000000000, 0.0000000000000000000 ) ) ;
#80 = ORIENTED_EDGE ( 'NONE', *, *, #30, .T. ) ;
#81 = PERSON_AND_ORGANIZATION ( #119, #13 ) ;
#82 = CLOSED_SHELL ( 'NONE', ( #134, #105, #64, #147 ) ) ;
#83 = CARTESIAN_POINT ( 'NONE',  ( 0.0000000000000000000, 0.0000000000000000000, 0.0000000000000000000 ) ) ;
#84 =( NAMED_UNIT ( * ) PLANE_ANGLE_UNIT ( ) SI_UNIT ( $, .RADIAN. ) );
#85 = DIRECTION ( 'NONE',  ( 0.0000000000000000000, 0.0000000000000000000, 1.000000000000000000 ) ) ;
#86 = APPLICATION_PROTOCOL_DEFINITION ( 'international standard', 'config_control_design', 1994, #168 ) ;
#87 = CC_DESIGN_APPROVAL ( #151, ( #78 ) ) ;
#88 = PERSON_AND_ORGANIZATION ( #119, #13 ) ;
#89 = FACE_OUTER_BOUND ( 'NONE', #99, .T. ) ;
#90 = PERSON_AND_ORGANIZATION ( #119, #13 ) ;
#91 = EDGE_CURVE ( 'NONE', #71, #47, #137, .T. ) ;
#92 = COORDINATED_UNIVERSAL_TIME_OFFSET ( 5, 0, .BEHIND. ) ;
#93 = DIRECTION ( 'NONE',  ( -1.000000000000000000, 0.0000000000000000000, 0.0000000000000000000 ) ) ;
#94 = DATE_TIME_ROLE ( 'classification_date' ) ;
#95 = DIRECTION ( 'NONE',  ( -0.0000000000000000000, -0.0000000000000000000, -1.000000000000000000 ) ) ;
#96 = CARTESIAN_POINT ( 'NONE',  ( 0.0000000000000000000, 0.0000000000000000000, 3.000000000000000000 ) ) ;
#97 = CC_DESIGN_SECURITY_CLASSIFICATION ( #154, ( #78 ) ) ;
#98 = APPROVAL_STATUS ( 'not_yet_approved' ) ;
#99 = EDGE_LOOP ( 'NONE', ( #148, #28 ) ) ;
#100 = PRODUCT_RELATED_PRODUCT_CATEGORY ( 'detail', '', ( #171 ) ) ;
#101 = AXIS2_PLACEMENT_3D ( 'NONE', #117, #115, #165 ) ;
#102 = VECTOR ( 'NONE', #128, 1000.000000000000000 ) ;
#103 = CARTESIAN_POINT ( 'NONE',  ( 20.00000000000000000, 2.449293598294706513E-15, 3.000000000000000000 ) ) ;
#104 = CARTESIAN_POINT ( 'NONE',  ( 0.0000000000000000000, 0.0000000000000000000, 3.000000000000000000 ) ) ;
#105 = ADVANCED_FACE ( 'NONE', ( #1 ), #49, .T. ) ;
#106 = ORIENTED_EDGE ( 'NONE', *, *, #162, .T. ) ;
#107 = APPROVAL_STATUS ( 'not_yet_approved' ) ;
#108 = AXIS2_PLACEMENT_3D ( 'NONE', #167, #50, #155 ) ;
#109 =( NAMED_UNIT ( * ) SI_UNIT ( $, .STERADIAN. ) SOLID_ANGLE_UNIT ( ) );
#110 = PRODUCT_DEFINITION ( 'UNKNOWN', '', #78, #5 ) ;
#111 = VERTEX_POINT ( 'NONE', #51 ) ;
#112 = PRODUCT_DEFINITION_SHAPE ( 'NONE', 'NONE',  #110 ) ;
#113 = ORIENTED_EDGE ( 'NONE', *, *, #30, .F. ) ;
#114 = AXIS2_PLACEMENT_3D ( 'NONE', #96, #45, #75 ) ;
#115 = DIRECTION ( 'NONE',  ( -0.0000000000000000000, -0.0000000000000000000, -1.000000000000000000 ) ) ;
#116 = CARTESIAN_POINT ( 'NONE',  ( 20.00000000000000000, 2.449293598294706513E-15, 0.0000000000000000000 ) ) ;
#117 = CARTESIAN_POINT ( 'NONE',  ( 0.0000000000000000000, 0.0000000000000000000, 3.000000000000000000 ) ) ;
#118 = DIRECTION ( 'NONE',  ( 0.0000000000000000000, 0.0000000000000000000, 1.000000000000000000 ) ) ;
#119 = PERSON ( 'UNSPECIFIED', 'UNSPECIFIED', 'UNSPECIFIED', ('UNSPECIFIED'), ('UNSPECIFIED'), ('UNSPECIFIED') ) ;
#120 = CC_DESIGN_PERSON_AND_ORGANIZATION_ASSIGNMENT ( #144, #172, ( #154 ) ) ;
#121 = AXIS2_PLACEMENT_3D ( 'NONE', #34, #17, #93 ) ;
#122 = EDGE_CURVE ( 'NONE', #145, #47, #14, .T. ) ;
#123 = APPROVAL_DATE_TIME ( #67, #127 ) ;
#124 = DATE_AND_TIME ( #15, #31 ) ;
#125 = PERSON_AND_ORGANIZATION ( #119, #13 ) ;
#126 = EDGE_LOOP ( 'NONE', ( #113, #40, #106, #143 ) ) ;
#127 = APPROVAL ( #98, 'UNSPECIFIED' ) ;
#128 = DIRECTION ( 'NONE',  ( -0.0000000000000000000, -0.0000000000000000000, -1.000000000000000000 ) ) ;
#129 = MANIFOLD_SOLID_BREP ( 'Extrude1', #82 ) ;
#130 = ORIENTED_EDGE ( 'NONE', *, *, #164, .F. ) ;
#131 = DIRECTION ( 'NONE',  ( 1.000000000000000000, 0.0000000000000000000, -0.0000000000000000000 ) ) ;
#132 = AXIS2_PLACEMENT_3D ( 'NONE', #83, #85, #65 ) ;
#133 = CIRCLE ( 'NONE', #58, 20.00000000000000000 ) ;
#134 = ADVANCED_FACE ( 'NONE', ( #159 ), #26, .T. ) ;
#135 = PERSON_AND_ORGANIZATION_ROLE ( 'design_supplier' ) ;
#136 = CIRCLE ( 'NONE', #114, 20.00000000000000000 ) ;
#137 = LINE ( 'NONE', #103, #102 ) ;
#138 = CARTESIAN_POINT ( 'NONE',  ( 0.0000000000000000000, 0.0000000000000000000, 0.0000000000000000000 ) ) ;
#139 = DATE_AND_TIME ( #56, #59 ) ;
#140 = DIRECTION ( 'NONE',  ( 0.0000000000000000000, 0.0000000000000000000, 1.000000000000000000 ) ) ;
#141 = PLANE ( 'NONE',  #11 ) ;
#142 = APPROVAL_DATE_TIME ( #124, #60 ) ;
#143 = ORIENTED_EDGE ( 'NONE', *, *, #19, .F. ) ;
#144 = PERSON_AND_ORGANIZATION ( #119, #13 ) ;
#145 = VERTEX_POINT ( 'NONE', #53 ) ;
#146 = APPROVAL_ROLE ( '' ) ;
#147 = ADVANCED_FACE ( 'NONE', ( #89 ), #4, .F. ) ;
#148 = ORIENTED_EDGE ( 'NONE', *, *, #122, .F. ) ;
#149 = LINE ( 'NONE', #23, #46 ) ;
#150 = LOCAL_TIME ( 13, 39, 30.00000000000000000, #153 ) ;
#151 = APPROVAL ( #107, 'UNSPECIFIED' ) ;
#152 = ADVANCED_BREP_SHAPE_REPRESENTATION ( 'Web Model 63209_14820', ( #129, #16 ), #48 ) ;
#153 = COORDINATED_UNIVERSAL_TIME_OFFSET ( 5, 0, .BEHIND. ) ;
#154 = SECURITY_CLASSIFICATION ( '', '', #24 ) ;
#155 = DIRECTION ( 'NONE',  ( 1.000000000000000000, 0.0000000000000000000, 0.0000000000000000000 ) ) ;
#156 = ORIENTED_EDGE ( 'NONE', *, *, #19, .T. ) ;
#157 = APPLICATION_CONTEXT ( 'configuration controlled 3d designs of mechanical parts and assemblies' ) ;
#158 = APPLICATION_PROTOCOL_DEFINITION ( 'international standard', 'config_control_design', 1994, #157 ) ;
#159 = FACE_OUTER_BOUND ( 'NONE', #126, .T. ) ;
#160 = CC_DESIGN_DATE_AND_TIME_ASSIGNMENT ( #139, #94, ( #154 ) ) ;
#161 = FACE_OUTER_BOUND ( 'NONE', #70, .T. ) ;
#162 = EDGE_CURVE ( 'NONE', #47, #145, #39, .T. ) ;
#163 = CC_DESIGN_PERSON_AND_ORGANIZATION_ASSIGNMENT ( #57, #25, ( #110 ) ) ;
#164 = EDGE_CURVE ( 'NONE', #111, #71, #133, .T. ) ;
#165 = DIRECTION ( 'NONE',  ( -1.000000000000000000, 0.0000000000000000000, 0.0000000000000000000 ) ) ;
#166 = DATE_AND_TIME ( #9, #150 ) ;
#167 = CARTESIAN_POINT ( 'NONE',  ( 0.0000000000000000000, 0.0000000000000000000, 0.0000000000000000000 ) ) ;
#168 = APPLICATION_CONTEXT ( 'configuration controlled 3d designs of mechanical parts and assemblies' ) ;
#169 = APPROVAL_ROLE ( '' ) ;
#170 = ORIENTED_EDGE ( 'NONE', *, *, #91, .F. ) ;
#171 = PRODUCT ( 'Web Model 63209_14820', 'Web Model 63209_14820', '', ( #37 ) ) ;
#172 = PERSON_AND_ORGANIZATION_ROLE ( 'classification_officer' ) ;
#173 = COORDINATED_UNIVERSAL_TIME_OFFSET ( 5, 0, .BEHIND. ) ;
#174 = DATE_AND_TIME ( #3, #33 ) ;
#175 = CC_DESIGN_PERSON_AND_ORGANIZATION_ASSIGNMENT ( #125, #22, ( #78 ) ) ;
ENDSEC;
END-ISO-10303-21;
