ISO-10303-21;
HEADER;
FILE_DESCRIPTION (( 'STEP AP203' ),
    '1' );
FILE_NAME ('Web Model 34417_Default.step',
    '2017-12-19T16:00:00',
    ( '' ),
    ( '' ),
    'SwSTEP 2.0',
    'SolidWorks 2016',
    '' );
FILE_SCHEMA (( 'CONFIG_CONTROL_DESIGN' ));
ENDSEC;

DATA;
#1 = EDGE_CURVE ( 'NONE', #128, #154, #105, .T. ) ;
#2 = CARTESIAN_POINT ( 'NONE',  ( -0.9842519685039369200, -1.968503937007874300, -0.1438785466262353700 ) ) ;
#3 = DIRECTION ( 'NONE',  ( 1.000000000000000000, 0.0000000000000000000, 0.0000000000000000000 ) ) ;
#4 = PLANE ( 'NONE',  #135 ) ;
#5 = PERSON_AND_ORGANIZATION_ROLE ( 'classification_officer' ) ;
#6 = DIRECTION ( 'NONE',  ( 0.0000000000000000000, 0.008726535498366855300, -0.9999619230641714200 ) ) ;
#7 = SHAPE_DEFINITION_REPRESENTATION ( #98, #46 ) ;
#8 = DIRECTION ( 'NONE',  ( 0.0000000000000000000, 0.9999619230641712000, 0.008726535498366853500 ) ) ;
#9 = APPLICATION_PROTOCOL_DEFINITION ( 'international standard', 'config_control_design', 1994, #35 ) ;
#10 = DIRECTION ( 'NONE',  ( -0.0000000000000000000, -0.0000000000000000000, 1.000000000000000000 ) ) ;
#11 = ORIENTED_EDGE ( 'NONE', *, *, #136, .F. ) ;
#12 = PRODUCT_RELATED_PRODUCT_CATEGORY ( 'detail', '', ( #137 ) ) ;
#13 = COORDINATED_UNIVERSAL_TIME_OFFSET ( 5, 0, .BEHIND. ) ;
#14 = CIRCLE ( 'NONE', #159, 0.9842519685039370400 ) ;
#15 = FACE_OUTER_BOUND ( 'NONE', #139, .T. ) ;
#16 =( GEOMETRIC_REPRESENTATION_CONTEXT ( 3 ) GLOBAL_UNCERTAINTY_ASSIGNED_CONTEXT ( ( #80 ) ) GLOBAL_UNIT_ASSIGNED_CONTEXT ( ( #24, #88, #130 ) ) REPRESENTATION_CONTEXT ( 'NONE', 'WORKASPACE' ) );
#17 = DATE_AND_TIME ( #55, #157 ) ;
#18 = CARTESIAN_POINT ( 'NONE',  ( -0.9842519685039370400, 1.205361022782828000E-016, -0.1266996730223934100 ) ) ;
#19 = FACE_OUTER_BOUND ( 'NONE', #73, .T. ) ;
#20 = CARTESIAN_POINT ( 'NONE',  ( 0.9842519685039370400, 0.0000000000000000000, -0.1266996730223934100 ) ) ;
#21 = DIRECTION ( 'NONE',  ( 1.000000000000000000, 0.0000000000000000000, 0.0000000000000000000 ) ) ;
#22 = PERSON_AND_ORGANIZATION ( #165, #72 ) ;
#23 = PERSON_AND_ORGANIZATION_ROLE ( 'creator' ) ;
#24 =( CONVERSION_BASED_UNIT ( 'INCH', #26 ) LENGTH_UNIT ( ) NAMED_UNIT ( #108 ) );
#25 = FACE_OUTER_BOUND ( 'NONE', #114, .T. ) ;
#26 = LENGTH_MEASURE_WITH_UNIT ( LENGTH_MEASURE( 0.02539999999999999900 ), #45 );
#27 = CARTESIAN_POINT ( 'NONE',  ( 0.9842519685039374800, -1.968503937007873800, -0.1438785466262353700 ) ) ;
#28 = CC_DESIGN_PERSON_AND_ORGANIZATION_ASSIGNMENT ( #65, #113, ( #137 ) ) ;
#29 = CARTESIAN_POINT ( 'NONE',  ( 0.9842519685039370400, 0.0000000000000000000, 0.0000000000000000000 ) ) ;
#30 = APPROVAL ( #52, 'UNSPECIFIED' ) ;
#31 = APPROVAL_STATUS ( 'not_yet_approved' ) ;
#32 = APPROVAL_PERSON_ORGANIZATION ( #103, #62, #125 ) ;
#33 = PERSON_AND_ORGANIZATION_ROLE ( 'design_supplier' ) ;
#34 = MECHANICAL_CONTEXT ( 'NONE', #87, 'mechanical' ) ;
#35 = APPLICATION_CONTEXT ( 'configuration controlled 3d designs of mechanical parts and assemblies' ) ;
#36 = PRODUCT_DEFINITION ( 'UNKNOWN', '', #174, #85 ) ;
#37 = CC_DESIGN_PERSON_AND_ORGANIZATION_ASSIGNMENT ( #101, #5, ( #60 ) ) ;
#38 = ADVANCED_FACE ( 'NONE', ( #25 ), #120, .T. ) ;
#39 = AXIS2_PLACEMENT_3D ( 'NONE', #172, #132, #50 ) ;
#40 = VERTEX_POINT ( 'NONE', #29 ) ;
#41 = LOCAL_TIME ( 11, 0, 0.0000000000000000000, #151 ) ;
#42 = MANIFOLD_SOLID_BREP ( '34243-1-solid1', #162 ) ;
#43 = VECTOR ( 'NONE', #10, 39.37007874015748100 ) ;
#44 = CARTESIAN_POINT ( 'NONE',  ( 0.9842519685039370400, 0.9842519685039370400, -0.1181102362204724500 ) ) ;
#45 =( LENGTH_UNIT ( ) NAMED_UNIT ( * ) SI_UNIT ( $, .METRE. ) );
#46 = ADVANCED_BREP_SHAPE_REPRESENTATION ( 'Web Model 34417_Default', ( #42, #39 ), #16 ) ;
#47 = APPROVAL_ROLE ( '' ) ;
#48 = CIRCLE ( 'NONE', #68, 0.9842519685039370400 ) ;
#49 = AXIS2_PLACEMENT_3D ( 'NONE', #146, #71, #118 ) ;
#50 = DIRECTION ( 'NONE',  ( 1.000000000000000000, 0.0000000000000000000, 0.0000000000000000000 ) ) ;
#51 = CC_DESIGN_DATE_AND_TIME_ASSIGNMENT ( #106, #133, ( #36 ) ) ;
#52 = APPROVAL_STATUS ( 'not_yet_approved' ) ;
#53 = CYLINDRICAL_SURFACE ( 'NONE', #178, 0.9842519685039370400 ) ;
#54 = LINE ( 'NONE', #74, #43 ) ;
#55 = CALENDAR_DATE ( 2017, 19, 12 ) ;
#56 = APPROVAL ( #31, 'UNSPECIFIED' ) ;
#57 = VECTOR ( 'NONE', #63, 39.37007874015748100 ) ;
#58 = EDGE_CURVE ( 'NONE', #40, #154, #48, .T. ) ;
#59 = CARTESIAN_POINT ( 'NONE',  ( 0.9842519685039374800, 1.968503937007873800, -0.1095207994185514700 ) ) ;
#60 = SECURITY_CLASSIFICATION ( '', '', #170 ) ;
#61 = DIRECTION ( 'NONE',  ( -0.0000000000000000000, -0.0000000000000000000, 1.000000000000000000 ) ) ;
#62 = APPROVAL ( #127, 'UNSPECIFIED' ) ;
#63 = DIRECTION ( 'NONE',  ( -0.0000000000000000000, -0.0000000000000000000, 1.000000000000000000 ) ) ;
#64 = COORDINATED_UNIVERSAL_TIME_OFFSET ( 5, 0, .BEHIND. ) ;
#65 = PERSON_AND_ORGANIZATION ( #165, #72 ) ;
#66 = ORIENTED_EDGE ( 'NONE', *, *, #173, .F. ) ;
#67 = PERSON_AND_ORGANIZATION_ROLE ( 'creator' ) ;
#68 = AXIS2_PLACEMENT_3D ( 'NONE', #143, #158, #3 ) ;
#69 = ORIENTED_EDGE ( 'NONE', *, *, #173, .T. ) ;
#70 = DIRECTION ( 'NONE',  ( 0.0000000000000000000, 0.0000000000000000000, 1.000000000000000000 ) ) ;
#71 = DIRECTION ( 'NONE',  ( -0.0000000000000000000, -0.0000000000000000000, 1.000000000000000000 ) ) ;
#72 = ORGANIZATION ( 'UNSPECIFIED', 'UNSPECIFIED', '' ) ;
#73 = EDGE_LOOP ( 'NONE', ( #89, #11, #69, #100 ) ) ;
#74 = CARTESIAN_POINT ( 'NONE',  ( 0.9842519685039370400, 0.0000000000000000000, -0.1352891098243143900 ) ) ;
#75 = CC_DESIGN_PERSON_AND_ORGANIZATION_ASSIGNMENT ( #155, #33, ( #174 ) ) ;
#76 = ORIENTED_EDGE ( 'NONE', *, *, #78, .T. ) ;
#77 = DATE_AND_TIME ( #110, #156 ) ;
#78 = EDGE_CURVE ( 'NONE', #154, #40, #14, .T. ) ;
#79 = PERSON_AND_ORGANIZATION ( #165, #72 ) ;
#80 = UNCERTAINTY_MEASURE_WITH_UNIT (LENGTH_MEASURE( 1.000000000000000100E-005 ), #24, 'distance_accuracy_value', 'NONE');
#81 = CC_DESIGN_DATE_AND_TIME_ASSIGNMENT ( #117, #95, ( #60 ) ) ;
#82 = CARTESIAN_POINT ( 'NONE',  ( 0.0000000000000000000, 0.0000000000000000000, -0.1352891098243143900 ) ) ;
#83 = ORIENTED_EDGE ( 'NONE', *, *, #1, .T. ) ;
#84 = CARTESIAN_POINT ( 'NONE',  ( -0.9842519685039378100, 1.968503937007873800, -0.1095207994185514700 ) ) ;
#85 = DESIGN_CONTEXT ( 'detailed design', #35, 'design' ) ;
#86 = DIRECTION ( 'NONE',  ( 1.000000000000000000, 0.0000000000000000000, -0.0000000000000000000 ) ) ;
#87 = APPLICATION_CONTEXT ( 'configuration controlled 3d designs of mechanical parts and assemblies' ) ;
#88 =( NAMED_UNIT ( * ) PLANE_ANGLE_UNIT ( ) SI_UNIT ( $, .RADIAN. ) );
#89 = ORIENTED_EDGE ( 'NONE', *, *, #1, .F. ) ;
#90 = PERSON_AND_ORGANIZATION ( #165, #72 ) ;
#91 = CC_DESIGN_APPROVAL ( #56, ( #36 ) ) ;
#92 = APPROVAL_PERSON_ORGANIZATION ( #90, #30, #47 ) ;
#93 = DIRECTION ( 'NONE',  ( 1.000000000000000000, 0.0000000000000000000, 0.0000000000000000000 ) ) ;
#94 = CARTESIAN_POINT ( 'NONE',  ( -0.9842519685039370400, 1.205361022782828000E-016, 0.0000000000000000000 ) ) ;
#95 = DATE_TIME_ROLE ( 'classification_date' ) ;
#96 = EDGE_LOOP ( 'NONE', ( #153, #175 ) ) ;
#97 = DATE_AND_TIME ( #147, #150 ) ;
#98 = PRODUCT_DEFINITION_SHAPE ( 'NONE', 'NONE',  #36 ) ;
#99 = APPLICATION_PROTOCOL_DEFINITION ( 'international standard', 'config_control_design', 1994, #87 ) ;
#100 = ORIENTED_EDGE ( 'NONE', *, *, #78, .F. ) ;
#101 = PERSON_AND_ORGANIZATION ( #165, #72 ) ;
#102 = VERTEX_POINT ( 'NONE', #168 ) ;
#103 = PERSON_AND_ORGANIZATION ( #165, #72 ) ;
#104 = AXIS2_PLACEMENT_3D ( 'NONE', #149, #126, #86 ) ;
#105 = LINE ( 'NONE', #107, #57 ) ;
#106 = DATE_AND_TIME ( #142, #177 ) ;
#107 = CARTESIAN_POINT ( 'NONE',  ( -0.9842519685039370400, 1.205361022782828000E-016, -0.1352891098243143900 ) ) ;
#108 = DIMENSIONAL_EXPONENTS ( 1.000000000000000000, 0.0000000000000000000, 0.0000000000000000000, 0.0000000000000000000, 0.0000000000000000000, 0.0000000000000000000, 0.0000000000000000000 ) ;
#109 = CARTESIAN_POINT ( 'NONE',  ( -0.9842519685039370400, 1.205361022782828000E-016, -0.1266996730223934100 ) ) ;
#110 = CALENDAR_DATE ( 2017, 19, 12 ) ;
#111 = APPROVAL_ROLE ( '' ) ;
#112 =( BOUNDED_CURVE ( )  B_SPLINE_CURVE ( 3, ( #18, #84, #59, #20 ),
 .UNSPECIFIED., .F., .F. ) 
 B_SPLINE_CURVE_WITH_KNOTS ( ( 4, 4 ),
 ( 4.712388980384689700, 7.853981633974482800 ),
 .UNSPECIFIED. ) 
 CURVE ( )  GEOMETRIC_REPRESENTATION_ITEM ( )  RATIONAL_B_SPLINE_CURVE ( ( 1.000000000000000000, 0.3333333333333333700, 0.3333333333333333700, 1.000000000000000000 ) ) 
 REPRESENTATION_ITEM ( '' )  );
#113 = PERSON_AND_ORGANIZATION_ROLE ( 'design_owner' ) ;
#114 = EDGE_LOOP ( 'NONE', ( #171, #83, #167, #66 ) ) ;
#115 = APPROVAL_DATE_TIME ( #97, #30 ) ;
#116 = CC_DESIGN_APPROVAL ( #62, ( #60 ) ) ;
#117 = DATE_AND_TIME ( #164, #41 ) ;
#118 = DIRECTION ( 'NONE',  ( 1.000000000000000000, 0.0000000000000000000, 0.0000000000000000000 ) ) ;
#119 = CC_DESIGN_PERSON_AND_ORGANIZATION_ASSIGNMENT ( #79, #23, ( #36 ) ) ;
#120 = CYLINDRICAL_SURFACE ( 'NONE', #49, 0.9842519685039370400 ) ;
#121 = EDGE_CURVE ( 'NONE', #128, #102, #112, .T. ) ;
#122 = CARTESIAN_POINT ( 'NONE',  ( 0.0000000000000000000, 0.0000000000000000000, 0.0000000000000000000 ) ) ;
#123 = PLANE ( 'NONE',  #104 ) ;
#124 = CC_DESIGN_PERSON_AND_ORGANIZATION_ASSIGNMENT ( #134, #67, ( #174 ) ) ;
#125 = APPROVAL_ROLE ( '' ) ;
#126 = DIRECTION ( 'NONE',  ( 0.0000000000000000000, 0.0000000000000000000, 1.000000000000000000 ) ) ;
#127 = APPROVAL_STATUS ( 'not_yet_approved' ) ;
#128 = VERTEX_POINT ( 'NONE', #169 ) ;
#129 = COORDINATED_UNIVERSAL_TIME_OFFSET ( 5, 0, .BEHIND. ) ;
#130 =( NAMED_UNIT ( * ) SI_UNIT ( $, .STERADIAN. ) SOLID_ANGLE_UNIT ( ) );
#131 = APPROVAL_DATE_TIME ( #17, #62 ) ;
#132 = DIRECTION ( 'NONE',  ( 0.0000000000000000000, 0.0000000000000000000, 1.000000000000000000 ) ) ;
#133 = DATE_TIME_ROLE ( 'creation_date' ) ;
#134 = PERSON_AND_ORGANIZATION ( #165, #72 ) ;
#135 = AXIS2_PLACEMENT_3D ( 'NONE', #44, #6, #8 ) ;
#136 = EDGE_CURVE ( 'NONE', #102, #128, #138, .T. ) ;
#137 = PRODUCT ( 'Web Model 34417_Default', 'Web Model 34417_Default', '', ( #34 ) ) ;
#138 =( BOUNDED_CURVE ( )  B_SPLINE_CURVE ( 3, ( #145, #27, #2, #109 ),
 .UNSPECIFIED., .F., .F. ) 
 B_SPLINE_CURVE_WITH_KNOTS ( ( 4, 4 ),
 ( 1.570796326794896600, 4.712388980384689700 ),
 .UNSPECIFIED. ) 
 CURVE ( )  GEOMETRIC_REPRESENTATION_ITEM ( )  RATIONAL_B_SPLINE_CURVE ( ( 1.000000000000000000, 0.3333333333333333700, 0.3333333333333333700, 1.000000000000000000 ) ) 
 REPRESENTATION_ITEM ( '' )  );
#139 = EDGE_LOOP ( 'NONE', ( #141, #76 ) ) ;
#140 = ADVANCED_FACE ( 'NONE', ( #19 ), #53, .T. ) ;
#141 = ORIENTED_EDGE ( 'NONE', *, *, #58, .T. ) ;
#142 = CALENDAR_DATE ( 2017, 19, 12 ) ;
#143 = CARTESIAN_POINT ( 'NONE',  ( 0.0000000000000000000, 0.0000000000000000000, 0.0000000000000000000 ) ) ;
#144 = ADVANCED_FACE ( 'NONE', ( #15 ), #123, .T. ) ;
#145 = CARTESIAN_POINT ( 'NONE',  ( 0.9842519685039370400, 0.0000000000000000000, -0.1266996730223934100 ) ) ;
#146 = CARTESIAN_POINT ( 'NONE',  ( 0.0000000000000000000, 0.0000000000000000000, -0.1352891098243143900 ) ) ;
#147 = CALENDAR_DATE ( 2017, 19, 12 ) ;
#148 = CC_DESIGN_APPROVAL ( #30, ( #174 ) ) ;
#149 = CARTESIAN_POINT ( 'NONE',  ( 0.9842519685039370400, -0.9842519685039370400, 0.0000000000000000000 ) ) ;
#150 = LOCAL_TIME ( 11, 0, 0.0000000000000000000, #176 ) ;
#151 = COORDINATED_UNIVERSAL_TIME_OFFSET ( 5, 0, .BEHIND. ) ;
#152 = APPROVAL_DATE_TIME ( #77, #56 ) ;
#153 = ORIENTED_EDGE ( 'NONE', *, *, #136, .T. ) ;
#154 = VERTEX_POINT ( 'NONE', #94 ) ;
#155 = PERSON_AND_ORGANIZATION ( #165, #72 ) ;
#156 = LOCAL_TIME ( 11, 0, 0.0000000000000000000, #13 ) ;
#157 = LOCAL_TIME ( 11, 0, 0.0000000000000000000, #129 ) ;
#158 = DIRECTION ( 'NONE',  ( 0.0000000000000000000, 0.0000000000000000000, 1.000000000000000000 ) ) ;
#159 = AXIS2_PLACEMENT_3D ( 'NONE', #122, #70, #21 ) ;
#160 = CC_DESIGN_SECURITY_CLASSIFICATION ( #60, ( #174 ) ) ;
#161 = APPROVAL_PERSON_ORGANIZATION ( #22, #56, #111 ) ;
#162 = CLOSED_SHELL ( 'NONE', ( #38, #144, #140, #166 ) ) ;
#163 = FACE_OUTER_BOUND ( 'NONE', #96, .T. ) ;
#164 = CALENDAR_DATE ( 2017, 19, 12 ) ;
#165 = PERSON ( 'UNSPECIFIED', 'UNSPECIFIED', 'UNSPECIFIED', ('UNSPECIFIED'), ('UNSPECIFIED'), ('UNSPECIFIED') ) ;
#166 = ADVANCED_FACE ( 'NONE', ( #163 ), #4, .T. ) ;
#167 = ORIENTED_EDGE ( 'NONE', *, *, #58, .F. ) ;
#168 = CARTESIAN_POINT ( 'NONE',  ( 0.9842519685039370400, 0.0000000000000000000, -0.1266996730223934100 ) ) ;
#169 = CARTESIAN_POINT ( 'NONE',  ( -0.9842519685039370400, 1.205361022782828000E-016, -0.1266996730223934100 ) ) ;
#170 = SECURITY_CLASSIFICATION_LEVEL ( 'unclassified' ) ;
#171 = ORIENTED_EDGE ( 'NONE', *, *, #121, .F. ) ;
#172 = CARTESIAN_POINT ( 'NONE',  ( 0.0000000000000000000, 0.0000000000000000000, 0.0000000000000000000 ) ) ;
#173 = EDGE_CURVE ( 'NONE', #102, #40, #54, .T. ) ;
#174 = PRODUCT_DEFINITION_FORMATION_WITH_SPECIFIED_SOURCE ( 'ANY', '', #137, .NOT_KNOWN. ) ;
#175 = ORIENTED_EDGE ( 'NONE', *, *, #121, .T. ) ;
#176 = COORDINATED_UNIVERSAL_TIME_OFFSET ( 5, 0, .BEHIND. ) ;
#177 = LOCAL_TIME ( 11, 0, 0.0000000000000000000, #64 ) ;
#178 = AXIS2_PLACEMENT_3D ( 'NONE', #82, #61, #93 ) ;
ENDSEC;
END-ISO-10303-21;
