ISO-10303-21;
HEADER;
FILE_DESCRIPTION (( 'STEP AP214' ),
    '1' );
FILE_NAME ('4586-E0W.STEP',
    '2009-12-21T17:11:37',
    ( ' ' ),
    ( ' ' ),
    'SwSTEP 2.0',
    'SolidWorks 2009',
    '' );
FILE_SCHEMA (( 'AUTOMOTIVE_DESIGN' ));
ENDSEC;

DATA;
#1 = CARTESIAN_POINT ( 'NONE',  ( 0.0000000000000000000, 0.0000000000000000000, 4.308132045400366600 ) ) ;
#2 = AXIS2_PLACEMENT_3D ( 'NONE', #1, #3, #5 ) ;
#3 = DIRECTION ( 'NONE',  ( -0.0000000000000000000, -0.0000000000000000000, 1.000000000000000000 ) ) ;
#4 = DIRECTION ( 'NONE',  ( 1.000000000000000000, 0.0000000000000000000, 0.0000000000000000000 ) ) ;
#5 = DIRECTION ( 'NONE',  ( 1.000000000000000000, 0.0000000000000000000, 0.0000000000000000000 ) ) ;
#6 = SURFACE_STYLE_USAGE ( .BOTH. , #7 ) ;
#7 = SURFACE_SIDE_STYLE ('',( #23 ) ) ;
#8 = DIRECTION ( 'NONE',  ( -0.0000000000000000000, -0.0000000000000000000, 1.000000000000000000 ) ) ;
#9 = AXIS2_PLACEMENT_3D ( 'NONE', #11, #8, #4 ) ;
#10 = CIRCLE ( 'NONE', #9, 12.69999999999999900 ) ;
#11 = CARTESIAN_POINT ( 'NONE',  ( 0.0000000000000000000, 0.0000000000000000000, 0.4740388339860837100 ) ) ;
#12 = PRESENTATION_STYLE_ASSIGNMENT (( #6 ) ) ;
#13 = PRESENTATION_LAYER_ASSIGNMENT (  '', '', ( #14 ) ) ;
#14 = STYLED_ITEM ( 'NONE', ( #12 ), #131 ) ;
#15 =( LENGTH_UNIT ( ) NAMED_UNIT ( * ) SI_UNIT ( .MILLI., .METRE. ) );
#16 = CYLINDRICAL_SURFACE ( 'NONE', #2, 12.69999999999999900 ) ;
#17 = MECHANICAL_DESIGN_GEOMETRIC_PRESENTATION_REPRESENTATION (  '', ( #14 ), #28 ) ;
#18 = DIRECTION ( 'NONE',  ( 1.000000000000000000, 0.0000000000000000000, 0.0000000000000000000 ) ) ;
#19 = DIRECTION ( 'NONE',  ( 0.0000000000000000000, -0.0000000000000000000, 1.000000000000000000 ) ) ;
#20 =( NAMED_UNIT ( * ) SI_UNIT ( $, .STERADIAN. ) SOLID_ANGLE_UNIT ( ) );
#21 =( NAMED_UNIT ( * ) PLANE_ANGLE_UNIT ( ) SI_UNIT ( $, .RADIAN. ) );
#22 = FILL_AREA_STYLE_COLOUR ( '', #25 ) ;
#23 = SURFACE_STYLE_FILL_AREA ( #24 ) ;
#24 = FILL_AREA_STYLE ('',( #22 ) ) ;
#25 = COLOUR_RGB ( '',0.9568627450980391500, 0.9490196078431372100, 0.9607843137254902200 ) ;
#26 = FACE_OUTER_BOUND ( 'NONE', #132, .T. ) ;
#27 = UNCERTAINTY_MEASURE_WITH_UNIT (LENGTH_MEASURE( 1.000000000000000100E-005 ), #15, 'distance_accuracy_value', 'NONE');
#28 =( GEOMETRIC_REPRESENTATION_CONTEXT ( 3 ) GLOBAL_UNCERTAINTY_ASSIGNED_CONTEXT ( ( #27 ) ) GLOBAL_UNIT_ASSIGNED_CONTEXT ( ( #15, #21, #20 ) ) REPRESENTATION_CONTEXT ( 'NONE', 'WORKASPACE' ) );
#29 = CARTESIAN_POINT ( 'NONE',  ( 0.0000000000000000000, 5.602759106099140700E-016, -1.524999999999999900 ) ) ;
#30 = AXIS2_PLACEMENT_3D ( 'NONE', #29, #19, #18 ) ;
#31 = PLANE ( 'NONE',  #30 ) ;
#32 = MECHANICAL_DESIGN_GEOMETRIC_PRESENTATION_REPRESENTATION (  '', ( #53 ), #67 ) ;
#33 = COLOUR_RGB ( '',0.7960784313725489700, 0.8235294117647058400, 0.9372549019607843100 ) ;
#34 =( NAMED_UNIT ( * ) PLANE_ANGLE_UNIT ( ) SI_UNIT ( $, .RADIAN. ) );
#35 = SURFACE_STYLE_FILL_AREA ( #52 ) ;
#36 = APPLICATION_CONTEXT ( 'automotive_design' ) ;
#37 = PRODUCT ( '4586-E0W', '4586-E0W', '', ( #38 ) ) ;
#38 = PRODUCT_CONTEXT ( 'NONE', #36, 'mechanical' ) ;
#39 = APPLICATION_PROTOCOL_DEFINITION ( 'draft international standard', 'automotive_design', 1998, #36 ) ;
#40 =( GEOMETRIC_REPRESENTATION_CONTEXT ( 3 ) GLOBAL_UNCERTAINTY_ASSIGNED_CONTEXT ( ( #44 ) ) GLOBAL_UNIT_ASSIGNED_CONTEXT ( ( #48, #34, #50 ) ) REPRESENTATION_CONTEXT ( 'NONE', 'WORKASPACE' ) );
#41 = DIRECTION ( 'NONE',  ( 0.0000000000000000000, 0.0000000000000000000, 1.000000000000000000 ) ) ;
#42 =( LENGTH_UNIT ( ) NAMED_UNIT ( * ) SI_UNIT ( .MILLI., .METRE. ) );
#43 = PRESENTATION_LAYER_ASSIGNMENT (  '', '', ( #53 ) ) ;
#44 = UNCERTAINTY_MEASURE_WITH_UNIT (LENGTH_MEASURE( 1.000000000000000100E-005 ), #48, 'distance_accuracy_value', 'NONE');
#45 = SHAPE_DEFINITION_REPRESENTATION ( #49, #66 ) ;
#46 = DIRECTION ( 'NONE',  ( 1.000000000000000000, 0.0000000000000000000, 0.0000000000000000000 ) ) ;
#47 = AXIS2_PLACEMENT_3D ( 'NONE', #51, #41, #46 ) ;
#48 =( LENGTH_UNIT ( ) NAMED_UNIT ( * ) SI_UNIT ( .MILLI., .METRE. ) );
#49 = PRODUCT_DEFINITION_SHAPE ( 'NONE', 'NONE',  #62 ) ;
#50 =( NAMED_UNIT ( * ) SI_UNIT ( $, .STERADIAN. ) SOLID_ANGLE_UNIT ( ) );
#51 = CARTESIAN_POINT ( 'NONE',  ( 0.0000000000000000000, 0.0000000000000000000, 0.0000000000000000000 ) ) ;
#52 = FILL_AREA_STYLE ('',( #58 ) ) ;
#53 = STYLED_ITEM ( 'NONE', ( #59 ), #66 ) ;
#54 = SURFACE_SIDE_STYLE ('',( #35 ) ) ;
#55 = UNCERTAINTY_MEASURE_WITH_UNIT (LENGTH_MEASURE( 1.000000000000000100E-005 ), #42, 'distance_accuracy_value', 'NONE');
#56 =( NAMED_UNIT ( * ) SI_UNIT ( $, .STERADIAN. ) SOLID_ANGLE_UNIT ( ) );
#57 = SURFACE_STYLE_USAGE ( .BOTH. , #54 ) ;
#58 = FILL_AREA_STYLE_COLOUR ( '', #33 ) ;
#59 = PRESENTATION_STYLE_ASSIGNMENT (( #57 ) ) ;
#60 = PRODUCT_RELATED_PRODUCT_CATEGORY ( 'part', '', ( #37 ) ) ;
#61 = PRODUCT_DEFINITION_FORMATION_WITH_SPECIFIED_SOURCE ( 'ANY', '', #37, .NOT_KNOWN. ) ;
#62 = PRODUCT_DEFINITION ( 'UNKNOWN', '', #61, #63 ) ;
#63 = PRODUCT_DEFINITION_CONTEXT ( 'detailed design', #65, 'design' ) ;
#64 = APPLICATION_PROTOCOL_DEFINITION ( 'draft international standard', 'automotive_design', 1998, #65 ) ;
#65 = APPLICATION_CONTEXT ( 'automotive_design' ) ;
#66 = ADVANCED_BREP_SHAPE_REPRESENTATION ( '4586-E0W', ( #90, #47 ), #40 ) ;
#67 =( GEOMETRIC_REPRESENTATION_CONTEXT ( 3 ) GLOBAL_UNCERTAINTY_ASSIGNED_CONTEXT ( ( #55 ) ) GLOBAL_UNIT_ASSIGNED_CONTEXT ( ( #42, #68, #56 ) ) REPRESENTATION_CONTEXT ( 'NONE', 'WORKASPACE' ) );
#68 =( NAMED_UNIT ( * ) PLANE_ANGLE_UNIT ( ) SI_UNIT ( $, .RADIAN. ) );
#69 = CARTESIAN_POINT ( 'NONE',  ( 0.0000000000000000000, 0.0000000000000000000, 0.4740388339860837100 ) ) ;
#70 = LINE ( 'NONE', #79, #77 ) ;
#71 =( LENGTH_UNIT ( ) NAMED_UNIT ( * ) SI_UNIT ( .MILLI., .METRE. ) );
#72 =( GEOMETRIC_REPRESENTATION_CONTEXT ( 3 ) GLOBAL_UNCERTAINTY_ASSIGNED_CONTEXT ( ( #261 ) ) GLOBAL_UNIT_ASSIGNED_CONTEXT ( ( #242, #253, #252 ) ) REPRESENTATION_CONTEXT ( 'NONE', 'WORKASPACE' ) );
#73 = DIRECTION ( 'NONE',  ( -0.0000000000000000000, -0.0000000000000000000, 1.000000000000000000 ) ) ;
#74 = CIRCLE ( 'NONE', #81, 12.69999999999999900 ) ;
#75 =( NAMED_UNIT ( * ) PLANE_ANGLE_UNIT ( ) SI_UNIT ( $, .RADIAN. ) );
#76 =( NAMED_UNIT ( * ) SI_UNIT ( $, .STERADIAN. ) SOLID_ANGLE_UNIT ( ) );
#77 = VECTOR ( 'NONE', #73, 1000.000000000000000 ) ;
#78 = DIRECTION ( 'NONE',  ( -0.0000000000000000000, -0.0000000000000000000, 1.000000000000000000 ) ) ;
#79 = CARTESIAN_POINT ( 'NONE',  ( -12.69999999999999900, 1.555250069354419100E-015, 4.308132045400366600 ) ) ;
#80 = DIRECTION ( 'NONE',  ( 1.000000000000000000, 0.0000000000000000000, 0.0000000000000000000 ) ) ;
#81 = AXIS2_PLACEMENT_3D ( 'NONE', #69, #78, #80 ) ;
#82 = CARTESIAN_POINT ( 'NONE',  ( -1.555250069354420500E-015, -12.70000000000001000, 0.4740388339860841500 ) ) ;
#83 = UNCERTAINTY_MEASURE_WITH_UNIT (LENGTH_MEASURE( 1.000000000000000100E-005 ), #71, 'distance_accuracy_value', 'NONE');
#84 = EDGE_CURVE ( 'NONE', #85, #89, #74, .T. ) ;
#85 = VERTEX_POINT ( 'NONE', #148 ) ;
#86 = ORIENTED_EDGE ( 'NONE', *, *, #87, .F. ) ;
#87 = EDGE_CURVE ( 'NONE', #96, #100, #135, .T. ) ;
#88 = VERTEX_POINT ( 'NONE', #145 ) ;
#89 = VERTEX_POINT ( 'NONE', #144 ) ;
#90 = MANIFOLD_SOLID_BREP ( 'NONE', #92 ) ;
#91 = ORIENTED_EDGE ( 'NONE', *, *, #115, .T. ) ;
#92 = CLOSED_SHELL ( 'NONE', ( #110, #116, #112, #126, #131 ) ) ;
#93 = ORIENTED_EDGE ( 'NONE', *, *, #99, .F. ) ;
#94 = ORIENTED_EDGE ( 'NONE', *, *, #124, .T. ) ;
#95 = ORIENTED_EDGE ( 'NONE', *, *, #117, .T. ) ;
#96 = VERTEX_POINT ( 'NONE', #82 ) ;
#97 = EDGE_CURVE ( 'NONE', #113, #88, #70, .T. ) ;
#98 = ORIENTED_EDGE ( 'NONE', *, *, #117, .F. ) ;
#99 = EDGE_CURVE ( 'NONE', #113, #111, #169, .T. ) ;
#100 = VERTEX_POINT ( 'NONE', #190 ) ;
#101 = ORIENTED_EDGE ( 'NONE', *, *, #87, .T. ) ;
#102 = EDGE_CURVE ( 'NONE', #89, #100, #203, .T. ) ;
#103 = ORIENTED_EDGE ( 'NONE', *, *, #84, .T. ) ;
#104 = EDGE_LOOP ( 'NONE', ( #95, #94, #101, #106 ) ) ;
#105 = ORIENTED_EDGE ( 'NONE', *, *, #84, .F. ) ;
#106 = ORIENTED_EDGE ( 'NONE', *, *, #102, .F. ) ;
#107 = ORIENTED_EDGE ( 'NONE', *, *, #119, .F. ) ;
#108 = ORIENTED_EDGE ( 'NONE', *, *, #124, .F. ) ;
#109 = EDGE_LOOP ( 'NONE', ( #118, #120, #98, #105, #114 ) ) ;
#110 = ADVANCED_FACE ( 'NONE', ( #204 ), #197, .T. ) ;
#111 = VERTEX_POINT ( 'NONE', #199 ) ;
#112 = ADVANCED_FACE ( 'NONE', ( #161 ), #195, .T. ) ;
#113 = VERTEX_POINT ( 'NONE', #179 ) ;
#114 = ORIENTED_EDGE ( 'NONE', *, *, #115, .F. ) ;
#115 = EDGE_CURVE ( 'NONE', #111, #85, #178, .T. ) ;
#116 = ADVANCED_FACE ( 'NONE', ( #185 ), #227, .T. ) ;
#117 = EDGE_CURVE ( 'NONE', #89, #88, #257, .T. ) ;
#118 = ORIENTED_EDGE ( 'NONE', *, *, #119, .T. ) ;
#119 = EDGE_CURVE ( 'NONE', #111, #113, #228, .T. ) ;
#120 = ORIENTED_EDGE ( 'NONE', *, *, #97, .T. ) ;
#121 = ORIENTED_EDGE ( 'NONE', *, *, #97, .F. ) ;
#122 = EDGE_LOOP ( 'NONE', ( #121, #123, #91, #130, #108 ) ) ;
#123 = ORIENTED_EDGE ( 'NONE', *, *, #99, .T. ) ;
#124 = EDGE_CURVE ( 'NONE', #88, #96, #240, .T. ) ;
#125 = EDGE_LOOP ( 'NONE', ( #86, #127, #103, #128 ) ) ;
#126 = ADVANCED_FACE ( 'NONE', ( #244 ), #16, .T. ) ;
#127 = ORIENTED_EDGE ( 'NONE', *, *, #129, .T. ) ;
#128 = ORIENTED_EDGE ( 'NONE', *, *, #102, .T. ) ;
#129 = EDGE_CURVE ( 'NONE', #96, #85, #10, .T. ) ;
#130 = ORIENTED_EDGE ( 'NONE', *, *, #129, .F. ) ;
#131 = ADVANCED_FACE ( 'NONE', ( #26 ), #31, .F. ) ;
#132 = EDGE_LOOP ( 'NONE', ( #107, #93 ) ) ;
#133 = CARTESIAN_POINT ( 'NONE',  ( 0.0000000000000000000, 0.0000000000000000000, -75.73500000000001400 ) ) ;
#134 = AXIS2_PLACEMENT_3D ( 'NONE', #133, #147, #146 ) ;
#135 = CIRCLE ( 'NONE', #134, 77.26000000000000500 ) ;
#136 = COLOUR_RGB ( '',0.7960784313725489700, 0.8235294117647058400, 0.9372549019607843100 ) ;
#137 = UNCERTAINTY_MEASURE_WITH_UNIT (LENGTH_MEASURE( 1.000000000000000100E-005 ), #141, 'distance_accuracy_value', 'NONE');
#138 =( NAMED_UNIT ( * ) SI_UNIT ( $, .STERADIAN. ) SOLID_ANGLE_UNIT ( ) );
#139 =( GEOMETRIC_REPRESENTATION_CONTEXT ( 3 ) GLOBAL_UNCERTAINTY_ASSIGNED_CONTEXT ( ( #137 ) ) GLOBAL_UNIT_ASSIGNED_CONTEXT ( ( #141, #140, #138 ) ) REPRESENTATION_CONTEXT ( 'NONE', 'WORKASPACE' ) );
#140 =( NAMED_UNIT ( * ) PLANE_ANGLE_UNIT ( ) SI_UNIT ( $, .RADIAN. ) );
#141 =( LENGTH_UNIT ( ) NAMED_UNIT ( * ) SI_UNIT ( .MILLI., .METRE. ) );
#142 = MECHANICAL_DESIGN_GEOMETRIC_PRESENTATION_REPRESENTATION (  '', ( #149 ), #139 ) ;
#143 = PRESENTATION_LAYER_ASSIGNMENT (  '', '', ( #149 ) ) ;
#144 = CARTESIAN_POINT ( 'NONE',  ( 0.0000000000000000000, 12.70000000000001000, 0.4740388339860841500 ) ) ;
#145 = CARTESIAN_POINT ( 'NONE',  ( -12.69999999999999900, 1.555250069354419100E-015, 0.4740388339860837100 ) ) ;
#146 = DIRECTION ( 'NONE',  ( -1.224606353822377300E-016, -1.000000000000000000, 0.0000000000000000000 ) ) ;
#147 = DIRECTION ( 'NONE',  ( -1.000000000000000000, 1.224606353822377300E-016, 0.0000000000000000000 ) ) ;
#148 = CARTESIAN_POINT ( 'NONE',  ( 12.69999999999999900, 0.0000000000000000000, 0.4740388339860837100 ) ) ;
#149 = STYLED_ITEM ( 'NONE', ( #150 ), #90 ) ;
#150 = PRESENTATION_STYLE_ASSIGNMENT (( #151 ) ) ;
#151 = SURFACE_STYLE_USAGE ( .BOTH. , #152 ) ;
#152 = SURFACE_SIDE_STYLE ('',( #153 ) ) ;
#153 = SURFACE_STYLE_FILL_AREA ( #154 ) ;
#154 = FILL_AREA_STYLE ('',( #155 ) ) ;
#155 = FILL_AREA_STYLE_COLOUR ( '', #136 ) ;
#156 =( GEOMETRIC_REPRESENTATION_CONTEXT ( 3 ) GLOBAL_UNCERTAINTY_ASSIGNED_CONTEXT ( ( #192 ) ) GLOBAL_UNIT_ASSIGNED_CONTEXT ( ( #223, #209, #193 ) ) REPRESENTATION_CONTEXT ( 'NONE', 'WORKASPACE' ) );
#157 = AXIS2_PLACEMENT_3D ( 'NONE', #165, #167, #166 ) ;
#158 = SURFACE_STYLE_FILL_AREA ( #159 ) ;
#159 = FILL_AREA_STYLE ('',( #198 ) ) ;
#160 = COLOUR_RGB ( '',0.9568627450980391500, 0.9490196078431372100, 0.9607843137254902200 ) ;
#161 = FACE_OUTER_BOUND ( 'NONE', #125, .T. ) ;
#162 = COLOUR_RGB ( '',0.9568627450980391500, 0.9490196078431372100, 0.9607843137254902200 ) ;
#163 = AXIS2_PLACEMENT_3D ( 'NONE', #172, #206, #207 ) ;
#164 = DIRECTION ( 'NONE',  ( -0.0000000000000000000, -0.0000000000000000000, 1.000000000000000000 ) ) ;
#165 = CARTESIAN_POINT ( 'NONE',  ( 0.0000000000000000000, 0.0000000000000000000, 4.308132045400366600 ) ) ;
#166 = DIRECTION ( 'NONE',  ( 1.000000000000000000, 0.0000000000000000000, 0.0000000000000000000 ) ) ;
#167 = DIRECTION ( 'NONE',  ( -0.0000000000000000000, -0.0000000000000000000, 1.000000000000000000 ) ) ;
#168 = PRESENTATION_LAYER_ASSIGNMENT (  '', '', ( #211 ) ) ;
#169 = CIRCLE ( 'NONE', #171, 12.69999999999999900 ) ;
#170 =( NAMED_UNIT ( * ) SI_UNIT ( $, .STERADIAN. ) SOLID_ANGLE_UNIT ( ) );
#171 = AXIS2_PLACEMENT_3D ( 'NONE', #208, #164, #213 ) ;
#172 = CARTESIAN_POINT ( 'NONE',  ( 0.0000000000000000000, 0.0000000000000000000, -75.73500000000001400 ) ) ;
#173 =( LENGTH_UNIT ( ) NAMED_UNIT ( * ) SI_UNIT ( .MILLI., .METRE. ) );
#174 = SURFACE_STYLE_USAGE ( .BOTH. , #200 ) ;
#175 = DIRECTION ( 'NONE',  ( 0.0000000000000000000, 1.000000000000000000, 0.0000000000000000000 ) ) ;
#176 = DIRECTION ( 'NONE',  ( -1.000000000000000000, 0.0000000000000000000, 0.0000000000000000000 ) ) ;
#177 = AXIS2_PLACEMENT_3D ( 'NONE', #194, #176, #175 ) ;
#178 = LINE ( 'NONE', #188, #187 ) ;
#179 = CARTESIAN_POINT ( 'NONE',  ( -12.69999999999999900, 1.555250069354419100E-015, -1.525000000000000400 ) ) ;
#180 = STYLED_ITEM ( 'NONE', ( #181 ), #112 ) ;
#181 = PRESENTATION_STYLE_ASSIGNMENT (( #182 ) ) ;
#182 = SURFACE_STYLE_USAGE ( .BOTH. , #183 ) ;
#183 = SURFACE_SIDE_STYLE ('',( #158 ) ) ;
#184 = MECHANICAL_DESIGN_GEOMETRIC_PRESENTATION_REPRESENTATION (  '', ( #211 ), #191 ) ;
#185 = FACE_OUTER_BOUND ( 'NONE', #104, .T. ) ;
#186 = DIRECTION ( 'NONE',  ( -0.0000000000000000000, -0.0000000000000000000, 1.000000000000000000 ) ) ;
#187 = VECTOR ( 'NONE', #186, 1000.000000000000000 ) ;
#188 = CARTESIAN_POINT ( 'NONE',  ( 12.69999999999999900, 0.0000000000000000000, 4.308132045400366600 ) ) ;
#189 = FILL_AREA_STYLE_COLOUR ( '', #222 ) ;
#190 = CARTESIAN_POINT ( 'NONE',  ( 0.0000000000000000000, 4.730654344815844000E-015, 1.524999999999998600 ) ) ;
#191 =( GEOMETRIC_REPRESENTATION_CONTEXT ( 3 ) GLOBAL_UNCERTAINTY_ASSIGNED_CONTEXT ( ( #202 ) ) GLOBAL_UNIT_ASSIGNED_CONTEXT ( ( #173, #212, #170 ) ) REPRESENTATION_CONTEXT ( 'NONE', 'WORKASPACE' ) );
#192 = UNCERTAINTY_MEASURE_WITH_UNIT (LENGTH_MEASURE( 1.000000000000000100E-005 ), #223, 'distance_accuracy_value', 'NONE');
#193 =( NAMED_UNIT ( * ) SI_UNIT ( $, .STERADIAN. ) SOLID_ANGLE_UNIT ( ) );
#194 = CARTESIAN_POINT ( 'NONE',  ( 0.0000000000000000000, 0.0000000000000000000, -75.73500000000001400 ) ) ;
#195 = SPHERICAL_SURFACE ( 'NONE', #177, 77.26000000000000500 ) ;
#196 = FILL_AREA_STYLE_COLOUR ( '', #162 ) ;
#197 = CYLINDRICAL_SURFACE ( 'NONE', #157, 12.69999999999999900 ) ;
#198 = FILL_AREA_STYLE_COLOUR ( '', #160 ) ;
#199 = CARTESIAN_POINT ( 'NONE',  ( 12.69999999999999900, 0.0000000000000000000, -1.525000000000000400 ) ) ;
#200 = SURFACE_SIDE_STYLE ('',( #205 ) ) ;
#201 = FILL_AREA_STYLE ('',( #196 ) ) ;
#202 = UNCERTAINTY_MEASURE_WITH_UNIT (LENGTH_MEASURE( 1.000000000000000100E-005 ), #173, 'distance_accuracy_value', 'NONE');
#203 = CIRCLE ( 'NONE', #163, 77.26000000000000500 ) ;
#204 = FACE_OUTER_BOUND ( 'NONE', #109, .T. ) ;
#205 = SURFACE_STYLE_FILL_AREA ( #201 ) ;
#206 = DIRECTION ( 'NONE',  ( 1.000000000000000000, 0.0000000000000000000, 0.0000000000000000000 ) ) ;
#207 = DIRECTION ( 'NONE',  ( 0.0000000000000000000, 0.0000000000000000000, -1.000000000000000000 ) ) ;
#208 = CARTESIAN_POINT ( 'NONE',  ( 0.0000000000000000000, 0.0000000000000000000, -1.525000000000000400 ) ) ;
#209 =( NAMED_UNIT ( * ) PLANE_ANGLE_UNIT ( ) SI_UNIT ( $, .RADIAN. ) );
#210 = PRESENTATION_STYLE_ASSIGNMENT (( #174 ) ) ;
#211 = STYLED_ITEM ( 'NONE', ( #210 ), #110 ) ;
#212 =( NAMED_UNIT ( * ) PLANE_ANGLE_UNIT ( ) SI_UNIT ( $, .RADIAN. ) );
#213 = DIRECTION ( 'NONE',  ( 1.000000000000000000, 0.0000000000000000000, 0.0000000000000000000 ) ) ;
#214 = MECHANICAL_DESIGN_GEOMETRIC_PRESENTATION_REPRESENTATION (  '', ( #216 ), #226 ) ;
#215 = PRESENTATION_LAYER_ASSIGNMENT (  '', '', ( #216 ) ) ;
#216 = STYLED_ITEM ( 'NONE', ( #217 ), #116 ) ;
#217 = PRESENTATION_STYLE_ASSIGNMENT (( #218 ) ) ;
#218 = SURFACE_STYLE_USAGE ( .BOTH. , #219 ) ;
#219 = SURFACE_SIDE_STYLE ('',( #220 ) ) ;
#220 = SURFACE_STYLE_FILL_AREA ( #221 ) ;
#221 = FILL_AREA_STYLE ('',( #189 ) ) ;
#222 = COLOUR_RGB ( '',0.9568627450980391500, 0.9490196078431372100, 0.9607843137254902200 ) ;
#223 =( LENGTH_UNIT ( ) NAMED_UNIT ( * ) SI_UNIT ( .MILLI., .METRE. ) );
#224 = MECHANICAL_DESIGN_GEOMETRIC_PRESENTATION_REPRESENTATION (  '', ( #180 ), #156 ) ;
#225 = PRESENTATION_LAYER_ASSIGNMENT (  '', '', ( #180 ) ) ;
#226 =( GEOMETRIC_REPRESENTATION_CONTEXT ( 3 ) GLOBAL_UNCERTAINTY_ASSIGNED_CONTEXT ( ( #83 ) ) GLOBAL_UNIT_ASSIGNED_CONTEXT ( ( #71, #75, #76 ) ) REPRESENTATION_CONTEXT ( 'NONE', 'WORKASPACE' ) );
#227 = SPHERICAL_SURFACE ( 'NONE', #247, 77.26000000000000500 ) ;
#228 = CIRCLE ( 'NONE', #243, 12.69999999999999900 ) ;
#229 = PRESENTATION_STYLE_ASSIGNMENT (( #230 ) ) ;
#230 = SURFACE_STYLE_USAGE ( .BOTH. , #231 ) ;
#231 = SURFACE_SIDE_STYLE ('',( #232 ) ) ;
#232 = SURFACE_STYLE_FILL_AREA ( #233 ) ;
#233 = FILL_AREA_STYLE ('',( #255 ) ) ;
#234 = DIRECTION ( 'NONE',  ( -0.0000000000000000000, -0.0000000000000000000, 1.000000000000000000 ) ) ;
#235 = DIRECTION ( 'NONE',  ( 1.000000000000000000, 0.0000000000000000000, 0.0000000000000000000 ) ) ;
#236 = CARTESIAN_POINT ( 'NONE',  ( 0.0000000000000000000, 0.0000000000000000000, 0.4740388339860837100 ) ) ;
#237 = AXIS2_PLACEMENT_3D ( 'NONE', #236, #234, #235 ) ;
#238 = CARTESIAN_POINT ( 'NONE',  ( 0.0000000000000000000, 0.0000000000000000000, 0.4740388339860837100 ) ) ;
#239 = AXIS2_PLACEMENT_3D ( 'NONE', #238, #246, #245 ) ;
#240 = CIRCLE ( 'NONE', #239, 12.69999999999999900 ) ;
#241 = CARTESIAN_POINT ( 'NONE',  ( 0.0000000000000000000, 0.0000000000000000000, -1.525000000000000400 ) ) ;
#242 =( LENGTH_UNIT ( ) NAMED_UNIT ( * ) SI_UNIT ( .MILLI., .METRE. ) );
#243 = AXIS2_PLACEMENT_3D ( 'NONE', #241, #260, #254 ) ;
#244 = FACE_OUTER_BOUND ( 'NONE', #122, .T. ) ;
#245 = DIRECTION ( 'NONE',  ( 1.000000000000000000, 0.0000000000000000000, 0.0000000000000000000 ) ) ;
#246 = DIRECTION ( 'NONE',  ( -0.0000000000000000000, -0.0000000000000000000, 1.000000000000000000 ) ) ;
#247 = AXIS2_PLACEMENT_3D ( 'NONE', #259, #258, #248 ) ;
#248 = DIRECTION ( 'NONE',  ( 0.0000000000000000000, 1.000000000000000000, 0.0000000000000000000 ) ) ;
#249 = MECHANICAL_DESIGN_GEOMETRIC_PRESENTATION_REPRESENTATION (  '', ( #251 ), #72 ) ;
#250 = PRESENTATION_LAYER_ASSIGNMENT (  '', '', ( #251 ) ) ;
#251 = STYLED_ITEM ( 'NONE', ( #229 ), #126 ) ;
#252 =( NAMED_UNIT ( * ) SI_UNIT ( $, .STERADIAN. ) SOLID_ANGLE_UNIT ( ) );
#253 =( NAMED_UNIT ( * ) PLANE_ANGLE_UNIT ( ) SI_UNIT ( $, .RADIAN. ) );
#254 = DIRECTION ( 'NONE',  ( 1.000000000000000000, 0.0000000000000000000, 0.0000000000000000000 ) ) ;
#255 = FILL_AREA_STYLE_COLOUR ( '', #256 ) ;
#256 = COLOUR_RGB ( '',0.9568627450980391500, 0.9490196078431372100, 0.9607843137254902200 ) ;
#257 = CIRCLE ( 'NONE', #237, 12.69999999999999900 ) ;
#258 = DIRECTION ( 'NONE',  ( -1.000000000000000000, 0.0000000000000000000, 0.0000000000000000000 ) ) ;
#259 = CARTESIAN_POINT ( 'NONE',  ( 0.0000000000000000000, 0.0000000000000000000, -75.73500000000001400 ) ) ;
#260 = DIRECTION ( 'NONE',  ( -0.0000000000000000000, -0.0000000000000000000, 1.000000000000000000 ) ) ;
#261 = UNCERTAINTY_MEASURE_WITH_UNIT (LENGTH_MEASURE( 1.000000000000000100E-005 ), #242, 'distance_accuracy_value', 'NONE');
ENDSEC;
END-ISO-10303-21;
