ISO-10303-21;
HEADER;
FILE_DESCRIPTION (( 'STEP AP203' ),
    '1' );
FILE_NAME ('step_47013.step',
    '2014-06-12T17:55:17',
    ( '' ),
    ( '' ),
    'SwSTEP 2.0',
    'SolidWorks 2014',
    '' );
FILE_SCHEMA (( 'CONFIG_CONTROL_DESIGN' ));
ENDSEC;

DATA;
#1 = CC_DESIGN_APPROVAL ( #4, ( #18 ) ) ;
#2 = ORIENTED_EDGE ( 'NONE', *, *, #279, .F. ) ;
#3 = VECTOR ( 'NONE', #93, 1000.000000000000000 ) ;
#4 = APPROVAL ( #321, 'UNSPECIFIED' ) ;
#5 = LOCAL_TIME ( 10, 55, 17.00000000000000000, #258 ) ;
#6 = VERTEX_POINT ( 'NONE', #233 ) ;
#7 = LINE ( 'NONE', #101, #252 ) ;
#8 = CC_DESIGN_DATE_AND_TIME_ASSIGNMENT ( #232, #282, ( #18 ) ) ;
#9 = CC_DESIGN_PERSON_AND_ORGANIZATION_ASSIGNMENT ( #174, #310, ( #18 ) ) ;
#10 = DIRECTION ( 'NONE',  ( -1.224646799147353200E-016, -1.000000000000000000, 0.0000000000000000000 ) ) ;
#11 = ADVANCED_FACE ( 'NONE', ( #59 ), #212, .T. ) ;
#12 = PERSON_AND_ORGANIZATION_ROLE ( 'creator' ) ;
#13 = FACE_OUTER_BOUND ( 'NONE', #206, .T. ) ;
#14 = ORIENTED_EDGE ( 'NONE', *, *, #157, .T. ) ;
#15 = CARTESIAN_POINT ( 'NONE',  ( 6.123233995736766300E-016, 5.000000000000000000, 5.000000000000000000 ) ) ;
#16 = APPROVAL_ROLE ( '' ) ;
#17 = APPROVAL_PERSON_ORGANIZATION ( #268, #34, #288 ) ;
#18 = SECURITY_CLASSIFICATION ( '', '', #72 ) ;
#19 = ORIENTED_EDGE ( 'NONE', *, *, #116, .T. ) ;
#20 = VECTOR ( 'NONE', #102, 1000.000000000000000 ) ;
#21 = APPROVAL_STATUS ( 'not_yet_approved' ) ;
#22 = PLANE ( 'NONE',  #203 ) ;
#23 = CC_DESIGN_PERSON_AND_ORGANIZATION_ASSIGNMENT ( #167, #284, ( #41 ) ) ;
#24 = CARTESIAN_POINT ( 'NONE',  ( 4.999999999999999100, 5.000000000000000900, 5.000000000000000000 ) ) ;
#25 = CC_DESIGN_PERSON_AND_ORGANIZATION_ASSIGNMENT ( #158, #286, ( #41 ) ) ;
#26 = APPLICATION_PROTOCOL_DEFINITION ( 'international standard', 'config_control_design', 1994, #35 ) ;
#27 = DATE_AND_TIME ( #271, #33 ) ;
#28 = ORIENTED_EDGE ( 'NONE', *, *, #80, .T. ) ;
#29 = CC_DESIGN_APPROVAL ( #34, ( #41 ) ) ;
#30 = CLOSED_SHELL ( 'NONE', ( #118, #234, #260, #36, #164 ) ) ;
#31 = ORIENTED_EDGE ( 'NONE', *, *, #277, .T. ) ;
#32 = EDGE_LOOP ( 'NONE', ( #207, #115, #130, #28 ) ) ;
#33 = LOCAL_TIME ( 10, 55, 17.00000000000000000, #276 ) ;
#34 = APPROVAL ( #70, 'UNSPECIFIED' ) ;
#35 = APPLICATION_CONTEXT ( 'configuration controlled 3d designs of mechanical parts and assemblies' ) ;
#36 = ADVANCED_FACE ( 'NONE', ( #199 ), #242, .T. ) ;
#37 = VERTEX_POINT ( 'NONE', #190 ) ;
#38 = VECTOR ( 'NONE', #78, 1000.000000000000000 ) ;
#39 = PERSON_AND_ORGANIZATION_ROLE ( 'design_owner' ) ;
#40 = EDGE_LOOP ( 'NONE', ( #159, #225, #2, #235 ) ) ;
#41 = PRODUCT_DEFINITION_FORMATION_WITH_SPECIFIED_SOURCE ( 'ANY', '', #134, .NOT_KNOWN. ) ;
#42 = MECHANICAL_CONTEXT ( 'NONE', #46, 'mechanical' ) ;
#43 = DIRECTION ( 'NONE',  ( 1.000000000000000000, 0.0000000000000000000, 0.0000000000000000000 ) ) ;
#44 = DIRECTION ( 'NONE',  ( 1.734723475976807600E-016, -1.000000000000000000, 0.0000000000000000000 ) ) ;
#45 = DIRECTION ( 'NONE',  ( 0.0000000000000000000, 0.0000000000000000000, 1.000000000000000000 ) ) ;
#46 = APPLICATION_CONTEXT ( 'configuration controlled 3d designs of mechanical parts and assemblies' ) ;
#47 = CC_DESIGN_DATE_AND_TIME_ASSIGNMENT ( #27, #200, ( #63 ) ) ;
#48 = APPLICATION_PROTOCOL_DEFINITION ( 'international standard', 'config_control_design', 1994, #46 ) ;
#49 = LINE ( 'NONE', #163, #195 ) ;
#50 = VERTEX_POINT ( 'NONE', #128 ) ;
#51 = CC_DESIGN_PERSON_AND_ORGANIZATION_ASSIGNMENT ( #54, #12, ( #63 ) ) ;
#52 =( NAMED_UNIT ( * ) SI_UNIT ( $, .STERADIAN. ) SOLID_ANGLE_UNIT ( ) );
#53 =( NAMED_UNIT ( * ) PLANE_ANGLE_UNIT ( ) SI_UNIT ( $, .RADIAN. ) );
#54 = PERSON_AND_ORGANIZATION ( #298, #120 ) ;
#55 = ORIENTED_EDGE ( 'NONE', *, *, #277, .F. ) ;
#56 = CC_DESIGN_APPROVAL ( #61, ( #63 ) ) ;
#57 = ORIENTED_EDGE ( 'NONE', *, *, #257, .F. ) ;
#58 = LINE ( 'NONE', #196, #208 ) ;
#59 = FACE_OUTER_BOUND ( 'NONE', #153, .T. ) ;
#60 = APPROVAL_DATE_TIME ( #254, #4 ) ;
#61 = APPROVAL ( #21, 'UNSPECIFIED' ) ;
#62 = VECTOR ( 'NONE', #151, 1000.000000000000000 ) ;
#63 = PRODUCT_DEFINITION ( 'UNKNOWN', '', #41, #311 ) ;
#64 = ORIENTED_EDGE ( 'NONE', *, *, #287, .T. ) ;
#65 = VERTEX_POINT ( 'NONE', #148 ) ;
#66 = LINE ( 'NONE', #84, #124 ) ;
#67 = ADVANCED_FACE ( 'NONE', ( #187 ), #243, .F. ) ;
#68 = CC_DESIGN_PERSON_AND_ORGANIZATION_ASSIGNMENT ( #105, #39, ( #134 ) ) ;
#69 = DIRECTION ( 'NONE',  ( 0.7071067811865474600, -0.7071067811865475700, 0.0000000000000000000 ) ) ;
#70 = APPROVAL_STATUS ( 'not_yet_approved' ) ;
#71 = ORIENTED_EDGE ( 'NONE', *, *, #272, .T. ) ;
#72 = SECURITY_CLASSIFICATION_LEVEL ( 'unclassified' ) ;
#73 = VECTOR ( 'NONE', #313, 1000.000000000000000 ) ;
#74 =( LENGTH_UNIT ( ) NAMED_UNIT ( * ) SI_UNIT ( .MILLI., .METRE. ) );
#75 = DATE_AND_TIME ( #299, #86 ) ;
#76 = AXIS2_PLACEMENT_3D ( 'NONE', #81, #45, #43 ) ;
#77 = CARTESIAN_POINT ( 'NONE',  ( 5.000000000000000000, 0.0000000000000000000, 5.000000000000000000 ) ) ;
#78 = DIRECTION ( 'NONE',  ( -1.000000000000000000, -1.734723475976807600E-016, 0.0000000000000000000 ) ) ;
#79 = COORDINATED_UNIVERSAL_TIME_OFFSET ( 7, 0, .BEHIND. ) ;
#80 = EDGE_CURVE ( 'NONE', #278, #37, #292, .T. ) ;
#81 = CARTESIAN_POINT ( 'NONE',  ( 0.0000000000000000000, 0.0000000000000000000, 0.0000000000000000000 ) ) ;
#82 = LINE ( 'NONE', #262, #205 ) ;
#83 = FACE_OUTER_BOUND ( 'NONE', #40, .T. ) ;
#84 = CARTESIAN_POINT ( 'NONE',  ( 6.123233995736766300E-016, 5.000000000000000000, 0.0000000000000000000 ) ) ;
#85 = DIRECTION ( 'NONE',  ( 1.734723475976806800E-016, -1.000000000000000000, 0.0000000000000000000 ) ) ;
#86 = LOCAL_TIME ( 10, 55, 17.00000000000000000, #318 ) ;
#87 = VECTOR ( 'NONE', #222, 1000.000000000000000 ) ;
#88 = ORIENTED_EDGE ( 'NONE', *, *, #317, .F. ) ;
#89 = APPROVAL_PERSON_ORGANIZATION ( #100, #61, #16 ) ;
#90 = LINE ( 'NONE', #152, #110 ) ;
#91 = DIRECTION ( 'NONE',  ( -1.000000000000000000, -1.734723475976806800E-016, 0.0000000000000000000 ) ) ;
#92 = CARTESIAN_POINT ( 'NONE',  ( 4.999999999999999100, 5.000000000000000900, 5.000000000000000000 ) ) ;
#93 = DIRECTION ( 'NONE',  ( -0.0000000000000000000, -0.0000000000000000000, -1.000000000000000000 ) ) ;
#94 = FACE_OUTER_BOUND ( 'NONE', #274, .T. ) ;
#95 = EDGE_CURVE ( 'NONE', #219, #306, #154, .T. ) ;
#96 = LINE ( 'NONE', #289, #73 ) ;
#97 = CARTESIAN_POINT ( 'NONE',  ( 5.000000000000000000, 0.0000000000000000000, 5.000000000000000000 ) ) ;
#98 = CC_DESIGN_SECURITY_CLASSIFICATION ( #18, ( #41 ) ) ;
#99 = PLANE ( 'NONE',  #108 ) ;
#100 = PERSON_AND_ORGANIZATION ( #298, #120 ) ;
#101 = CARTESIAN_POINT ( 'NONE',  ( 5.000000000000000000, 0.0000000000000000000, 5.000000000000000000 ) ) ;
#102 = DIRECTION ( 'NONE',  ( 0.7071067811865474600, -0.7071067811865475700, 0.0000000000000000000 ) ) ;
#103 = DIRECTION ( 'NONE',  ( -1.000000000000000000, 0.0000000000000000000, 0.0000000000000000000 ) ) ;
#104 = FACE_OUTER_BOUND ( 'NONE', #146, .T. ) ;
#105 = PERSON_AND_ORGANIZATION ( #298, #120 ) ;
#106 = CARTESIAN_POINT ( 'NONE',  ( 6.123233995736766300E-016, 5.000000000000000000, 5.000000000000000000 ) ) ;
#107 = VERTEX_POINT ( 'NONE', #15 ) ;
#108 = AXIS2_PLACEMENT_3D ( 'NONE', #97, #91, #85 ) ;
#109 = ORIENTED_EDGE ( 'NONE', *, *, #228, .T. ) ;
#110 = VECTOR ( 'NONE', #150, 1000.000000000000000 ) ;
#111 =( GEOMETRIC_REPRESENTATION_CONTEXT ( 3 ) GLOBAL_UNCERTAINTY_ASSIGNED_CONTEXT ( ( #307 ) ) GLOBAL_UNIT_ASSIGNED_CONTEXT ( ( #74, #53, #52 ) ) REPRESENTATION_CONTEXT ( 'NONE', 'WORKASPACE' ) );
#112 = AXIS2_PLACEMENT_3D ( 'NONE', #172, #169, #168 ) ;
#113 = MANIFOLD_SOLID_BREP ( 'Boss-Extrude1', #30 ) ;
#114 = DIRECTION ( 'NONE',  ( 1.000000000000000000, 1.734723475976807600E-016, 0.0000000000000000000 ) ) ;
#115 = ORIENTED_EDGE ( 'NONE', *, *, #261, .F. ) ;
#116 = EDGE_CURVE ( 'NONE', #306, #183, #283, .T. ) ;
#117 = CARTESIAN_POINT ( 'NONE',  ( 4.999999999999999100, 5.000000000000000900, 5.000000000000000000 ) ) ;
#118 = ADVANCED_FACE ( 'NONE', ( #297 ), #22, .F. ) ;
#119 = DIRECTION ( 'NONE',  ( -1.734723475976806800E-016, 1.000000000000000000, 0.0000000000000000000 ) ) ;
#120 = ORGANIZATION ( 'UNSPECIFIED', 'UNSPECIFIED', '' ) ;
#121 = DIRECTION ( 'NONE',  ( -0.0000000000000000000, -0.0000000000000000000, -1.000000000000000000 ) ) ;
#122 = DIRECTION ( 'NONE',  ( -1.734723475976806800E-016, 1.000000000000000000, 0.0000000000000000000 ) ) ;
#123 = ORIENTED_EDGE ( 'NONE', *, *, #257, .T. ) ;
#124 = VECTOR ( 'NONE', #69, 1000.000000000000000 ) ;
#125 = ORIENTED_EDGE ( 'NONE', *, *, #95, .F. ) ;
#126 = CARTESIAN_POINT ( 'NONE',  ( 6.123233995736766300E-016, 5.000000000000000000, 5.000000000000000000 ) ) ;
#127 = CALENDAR_DATE ( 2014, 12, 6 ) ;
#128 = CARTESIAN_POINT ( 'NONE',  ( 6.123233995736766300E-016, 5.000000000000000000, 0.0000000000000000000 ) ) ;
#129 = EDGE_LOOP ( 'NONE', ( #194, #19, #14 ) ) ;
#130 = ORIENTED_EDGE ( 'NONE', *, *, #309, .F. ) ;
#131 = ORIENTED_EDGE ( 'NONE', *, *, #272, .F. ) ;
#132 = VECTOR ( 'NONE', #170, 1000.000000000000000 ) ;
#133 = DATE_AND_TIME ( #127, #5 ) ;
#134 = PRODUCT ( 'step_47013', 'step_47013', '', ( #42 ) ) ;
#135 = EDGE_LOOP ( 'NONE', ( #214, #259, #177, #123 ) ) ;
#136 = SHAPE_DEFINITION_REPRESENTATION ( #180, #215 ) ;
#137 = AXIS2_PLACEMENT_3D ( 'NONE', #224, #216, #213 ) ;
#138 = ORIENTED_EDGE ( 'NONE', *, *, #157, .F. ) ;
#139 = LINE ( 'NONE', #155, #291 ) ;
#140 = CARTESIAN_POINT ( 'NONE',  ( 4.999999999999999100, 5.000000000000000900, 5.000000000000000000 ) ) ;
#141 = APPROVAL_DATE_TIME ( #133, #34 ) ;
#142 = ADVANCED_FACE ( 'NONE', ( #83 ), #300, .F. ) ;
#143 = CARTESIAN_POINT ( 'NONE',  ( 0.0000000000000000000, 0.0000000000000000000, 0.0000000000000000000 ) ) ;
#144 = DIRECTION ( 'NONE',  ( 1.000000000000000000, 0.0000000000000000000, 0.0000000000000000000 ) ) ;
#145 = ORIENTED_EDGE ( 'NONE', *, *, #309, .T. ) ;
#146 = EDGE_LOOP ( 'NONE', ( #31, #269, #162, #64 ) ) ;
#147 = CARTESIAN_POINT ( 'NONE',  ( 5.000000000000000000, 0.0000000000000000000, 0.0000000000000000000 ) ) ;
#148 = CARTESIAN_POINT ( 'NONE',  ( 5.000000000000000000, 0.0000000000000000000, 0.0000000000000000000 ) ) ;
#149 = LINE ( 'NONE', #126, #20 ) ;
#150 = DIRECTION ( 'NONE',  ( -0.0000000000000000000, -0.0000000000000000000, -1.000000000000000000 ) ) ;
#151 = DIRECTION ( 'NONE',  ( -0.7071067811865474600, 0.7071067811865475700, 0.0000000000000000000 ) ) ;
#152 = CARTESIAN_POINT ( 'NONE',  ( 6.123233995736766300E-016, 5.000000000000000000, 5.000000000000000000 ) ) ;
#153 = EDGE_LOOP ( 'NONE', ( #173, #55, #88 ) ) ;
#154 = LINE ( 'NONE', #77, #62 ) ;
#155 = CARTESIAN_POINT ( 'NONE',  ( 5.000000000000000000, 0.0000000000000000000, 5.000000000000000000 ) ) ;
#156 = LINE ( 'NONE', #223, #166 ) ;
#157 = EDGE_CURVE ( 'NONE', #183, #219, #96, .T. ) ;
#158 = PERSON_AND_ORGANIZATION ( #298, #120 ) ;
#159 = ORIENTED_EDGE ( 'NONE', *, *, #317, .T. ) ;
#160 = ORIENTED_EDGE ( 'NONE', *, *, #267, .F. ) ;
#161 = AXIS2_PLACEMENT_3D ( 'NONE', #280, #238, #227 ) ;
#162 = ORIENTED_EDGE ( 'NONE', *, *, #275, .F. ) ;
#163 = CARTESIAN_POINT ( 'NONE',  ( 0.0000000000000000000, 0.0000000000000000000, 0.0000000000000000000 ) ) ;
#164 = ADVANCED_FACE ( 'NONE', ( #94 ), #270, .F. ) ;
#165 = CARTESIAN_POINT ( 'NONE',  ( 5.000000000000000000, 0.0000000000000000000, 0.0000000000000000000 ) ) ;
#166 = VECTOR ( 'NONE', #193, 1000.000000000000000 ) ;
#167 = PERSON_AND_ORGANIZATION ( #298, #120 ) ;
#168 = DIRECTION ( 'NONE',  ( 0.0000000000000000000, -0.0000000000000000000, 1.000000000000000000 ) ) ;
#169 = DIRECTION ( 'NONE',  ( 0.0000000000000000000, 1.000000000000000000, 0.0000000000000000000 ) ) ;
#170 = DIRECTION ( 'NONE',  ( -0.7071067811865474600, 0.7071067811865475700, 0.0000000000000000000 ) ) ;
#171 = VECTOR ( 'NONE', #119, 1000.000000000000000 ) ;
#172 = CARTESIAN_POINT ( 'NONE',  ( 0.0000000000000000000, 0.0000000000000000000, 5.000000000000000000 ) ) ;
#173 = ORIENTED_EDGE ( 'NONE', *, *, #178, .F. ) ;
#174 = PERSON_AND_ORGANIZATION ( #298, #120 ) ;
#175 = PLANE ( 'NONE',  #112 ) ;
#176 = AXIS2_PLACEMENT_3D ( 'NONE', #294, #266, #265 ) ;
#177 = ORIENTED_EDGE ( 'NONE', *, *, #116, .F. ) ;
#178 = EDGE_CURVE ( 'NONE', #37, #244, #82, .T. ) ;
#179 = LINE ( 'NONE', #147, #171 ) ;
#180 = PRODUCT_DEFINITION_SHAPE ( 'NONE', 'NONE',  #63 ) ;
#181 = EDGE_LOOP ( 'NONE', ( #281, #57, #125, #109 ) ) ;
#182 = COORDINATED_UNIVERSAL_TIME_OFFSET ( 7, 0, .BEHIND. ) ;
#183 = VERTEX_POINT ( 'NONE', #250 ) ;
#184 = AXIS2_PLACEMENT_3D ( 'NONE', #295, #314, #293 ) ;
#185 = VECTOR ( 'NONE', #218, 1000.000000000000000 ) ;
#186 = CARTESIAN_POINT ( 'NONE',  ( 5.000000000000000000, 0.0000000000000000000, 0.0000000000000000000 ) ) ;
#187 = FACE_OUTER_BOUND ( 'NONE', #32, .T. ) ;
#188 = CARTESIAN_POINT ( 'NONE',  ( 0.0000000000000000000, 0.0000000000000000000, 0.0000000000000000000 ) ) ;
#189 = APPROVAL_ROLE ( '' ) ;
#190 = CARTESIAN_POINT ( 'NONE',  ( 4.999999999999999100, 5.000000000000000900, 0.0000000000000000000 ) ) ;
#191 = DIRECTION ( 'NONE',  ( -0.0000000000000000000, -0.0000000000000000000, -1.000000000000000000 ) ) ;
#192 = DIRECTION ( 'NONE',  ( 0.0000000000000000000, 0.0000000000000000000, 1.000000000000000000 ) ) ;
#193 = DIRECTION ( 'NONE',  ( -1.224646799147353200E-016, -1.000000000000000000, 0.0000000000000000000 ) ) ;
#194 = ORIENTED_EDGE ( 'NONE', *, *, #95, .T. ) ;
#195 = VECTOR ( 'NONE', #144, 1000.000000000000000 ) ;
#196 = CARTESIAN_POINT ( 'NONE',  ( 0.0000000000000000000, 0.0000000000000000000, 5.000000000000000000 ) ) ;
#197 = LOCAL_TIME ( 10, 55, 17.00000000000000000, #182 ) ;
#198 = CARTESIAN_POINT ( 'NONE',  ( 6.123233995736766300E-016, 5.000000000000000000, 0.0000000000000000000 ) ) ;
#199 = FACE_OUTER_BOUND ( 'NONE', #129, .T. ) ;
#200 = DATE_TIME_ROLE ( 'creation_date' ) ;
#201 = VECTOR ( 'NONE', #10, 1000.000000000000000 ) ;
#202 = DIRECTION ( 'NONE',  ( 0.0000000000000000000, 0.0000000000000000000, -1.000000000000000000 ) ) ;
#203 = AXIS2_PLACEMENT_3D ( 'NONE', #308, #305, #304 ) ;
#204 = FACE_OUTER_BOUND ( 'NONE', #135, .T. ) ;
#205 = VECTOR ( 'NONE', #263, 1000.000000000000000 ) ;
#206 = EDGE_LOOP ( 'NONE', ( #145, #273, #319 ) ) ;
#207 = ORIENTED_EDGE ( 'NONE', *, *, #178, .T. ) ;
#208 = VECTOR ( 'NONE', #191, 1000.000000000000000 ) ;
#209 = CARTESIAN_POINT ( 'NONE',  ( 6.123233995736766300E-016, 5.000000000000000000, 5.000000000000000000 ) ) ;
#210 = ADVANCED_FACE ( 'NONE', ( #13 ), #240, .F. ) ;
#211 = AXIS2_PLACEMENT_3D ( 'NONE', #140, #44, #114 ) ;
#212 = PLANE ( 'NONE',  #251 ) ;
#213 = DIRECTION ( 'NONE',  ( 1.224646799147353200E-016, 1.000000000000000000, 0.0000000000000000000 ) ) ;
#214 = ORIENTED_EDGE ( 'NONE', *, *, #246, .T. ) ;
#215 = ADVANCED_BREP_SHAPE_REPRESENTATION ( 'step_47013', ( #113, #290, #76 ), #111 ) ;
#216 = DIRECTION ( 'NONE',  ( 1.000000000000000000, -1.224646799147353200E-016, 0.0000000000000000000 ) ) ;
#217 = PLANE ( 'NONE',  #137 ) ;
#218 = DIRECTION ( 'NONE',  ( -0.0000000000000000000, -0.0000000000000000000, -1.000000000000000000 ) ) ;
#219 = VERTEX_POINT ( 'NONE', #241 ) ;
#220 = CARTESIAN_POINT ( 'NONE',  ( 0.0000000000000000000, 0.0000000000000000000, 5.000000000000000000 ) ) ;
#221 = CALENDAR_DATE ( 2014, 12, 6 ) ;
#222 = DIRECTION ( 'NONE',  ( -0.0000000000000000000, -0.0000000000000000000, -1.000000000000000000 ) ) ;
#223 = CARTESIAN_POINT ( 'NONE',  ( 6.123233995736766300E-016, 5.000000000000000000, 0.0000000000000000000 ) ) ;
#224 = CARTESIAN_POINT ( 'NONE',  ( 6.123233995736766300E-016, 5.000000000000000000, 5.000000000000000000 ) ) ;
#225 = ORIENTED_EDGE ( 'NONE', *, *, #287, .F. ) ;
#226 = CARTESIAN_POINT ( 'NONE',  ( 5.000000000000000000, 0.0000000000000000000, 5.000000000000000000 ) ) ;
#227 = DIRECTION ( 'NONE',  ( -1.000000000000000000, 0.0000000000000000000, 0.0000000000000000000 ) ) ;
#228 = EDGE_CURVE ( 'NONE', #219, #65, #320, .T. ) ;
#229 = ORIENTED_EDGE ( 'NONE', *, *, #228, .F. ) ;
#230 = AXIS2_PLACEMENT_3D ( 'NONE', #220, #192, #316 ) ;
#231 = FACE_OUTER_BOUND ( 'NONE', #264, .T. ) ;
#232 = DATE_AND_TIME ( #221, #197 ) ;
#233 = CARTESIAN_POINT ( 'NONE',  ( 5.000000000000000000, 0.0000000000000000000, 5.000000000000000000 ) ) ;
#234 = ADVANCED_FACE ( 'NONE', ( #204 ), #217, .F. ) ;
#235 = ORIENTED_EDGE ( 'NONE', *, *, #261, .T. ) ;
#236 = LINE ( 'NONE', #165, #132 ) ;
#237 = ORIENTED_EDGE ( 'NONE', *, *, #246, .F. ) ;
#238 = DIRECTION ( 'NONE',  ( 0.0000000000000000000, 0.0000000000000000000, -1.000000000000000000 ) ) ;
#239 = PERSON_AND_ORGANIZATION ( #298, #120 ) ;
#240 = PLANE ( 'NONE',  #161 ) ;
#241 = CARTESIAN_POINT ( 'NONE',  ( 5.000000000000000000, 0.0000000000000000000, 5.000000000000000000 ) ) ;
#242 = PLANE ( 'NONE',  #230 ) ;
#243 = PLANE ( 'NONE',  #211 ) ;
#244 = VERTEX_POINT ( 'NONE', #198 ) ;
#245 = ORIENTED_EDGE ( 'NONE', *, *, #248, .T. ) ;
#246 = EDGE_CURVE ( 'NONE', #50, #249, #156, .T. ) ;
#247 = APPROVAL_PERSON_ORGANIZATION ( #239, #4, #189 ) ;
#248 = EDGE_CURVE ( 'NONE', #183, #249, #58, .T. ) ;
#249 = VERTEX_POINT ( 'NONE', #188 ) ;
#250 = CARTESIAN_POINT ( 'NONE',  ( 0.0000000000000000000, 0.0000000000000000000, 5.000000000000000000 ) ) ;
#251 = AXIS2_PLACEMENT_3D ( 'NONE', #143, #202, #103 ) ;
#252 = VECTOR ( 'NONE', #121, 1000.000000000000000 ) ;
#253 = VERTEX_POINT ( 'NONE', #186 ) ;
#254 = DATE_AND_TIME ( #303, #312 ) ;
#255 = PRODUCT_RELATED_PRODUCT_CATEGORY ( 'detail', '', ( #134 ) ) ;
#256 = CLOSED_SHELL ( 'NONE', ( #67, #142, #302, #210, #11 ) ) ;
#257 = EDGE_CURVE ( 'NONE', #306, #50, #301, .T. ) ;
#258 = COORDINATED_UNIVERSAL_TIME_OFFSET ( 7, 0, .BEHIND. ) ;
#259 = ORIENTED_EDGE ( 'NONE', *, *, #248, .F. ) ;
#260 = ADVANCED_FACE ( 'NONE', ( #231 ), #175, .F. ) ;
#261 = EDGE_CURVE ( 'NONE', #107, #244, #90, .T. ) ;
#262 = CARTESIAN_POINT ( 'NONE',  ( 4.999999999999999100, 5.000000000000000900, 0.0000000000000000000 ) ) ;
#263 = DIRECTION ( 'NONE',  ( -1.000000000000000000, -1.734723475976807600E-016, 0.0000000000000000000 ) ) ;
#264 = EDGE_LOOP ( 'NONE', ( #71, #229, #138, #245 ) ) ;
#265 = DIRECTION ( 'NONE',  ( 1.000000000000000000, 0.0000000000000000000, -0.0000000000000000000 ) ) ;
#266 = DIRECTION ( 'NONE',  ( 0.0000000000000000000, 0.0000000000000000000, 1.000000000000000000 ) ) ;
#267 = EDGE_CURVE ( 'NONE', #65, #50, #236, .T. ) ;
#268 = PERSON_AND_ORGANIZATION ( #298, #120 ) ;
#269 = ORIENTED_EDGE ( 'NONE', *, *, #80, .F. ) ;
#270 = PLANE ( 'NONE',  #176 ) ;
#271 = CALENDAR_DATE ( 2014, 12, 6 ) ;
#272 = EDGE_CURVE ( 'NONE', #249, #65, #49, .T. ) ;
#273 = ORIENTED_EDGE ( 'NONE', *, *, #279, .T. ) ;
#274 = EDGE_LOOP ( 'NONE', ( #160, #131, #237 ) ) ;
#275 = EDGE_CURVE ( 'NONE', #6, #278, #139, .T. ) ;
#276 = COORDINATED_UNIVERSAL_TIME_OFFSET ( 7, 0, .BEHIND. ) ;
#277 = EDGE_CURVE ( 'NONE', #253, #37, #179, .T. ) ;
#278 = VERTEX_POINT ( 'NONE', #117 ) ;
#279 = EDGE_CURVE ( 'NONE', #107, #6, #149, .T. ) ;
#280 = CARTESIAN_POINT ( 'NONE',  ( 0.0000000000000000000, 0.0000000000000000000, 5.000000000000000000 ) ) ;
#281 = ORIENTED_EDGE ( 'NONE', *, *, #267, .T. ) ;
#282 = DATE_TIME_ROLE ( 'classification_date' ) ;
#283 = LINE ( 'NONE', #315, #201 ) ;
#284 = PERSON_AND_ORGANIZATION_ROLE ( 'design_supplier' ) ;
#285 = APPROVAL_DATE_TIME ( #75, #61 ) ;
#286 = PERSON_AND_ORGANIZATION_ROLE ( 'creator' ) ;
#287 = EDGE_CURVE ( 'NONE', #6, #253, #7, .T. ) ;
#288 = APPROVAL_ROLE ( '' ) ;
#289 = CARTESIAN_POINT ( 'NONE',  ( 0.0000000000000000000, 0.0000000000000000000, 5.000000000000000000 ) ) ;
#290 = MANIFOLD_SOLID_BREP ( 'Boss-Extrude2', #256 ) ;
#291 = VECTOR ( 'NONE', #122, 1000.000000000000000 ) ;
#292 = LINE ( 'NONE', #24, #3 ) ;
#293 = DIRECTION ( 'NONE',  ( -0.7071067811865474600, 0.7071067811865475700, 0.0000000000000000000 ) ) ;
#294 = CARTESIAN_POINT ( 'NONE',  ( 0.0000000000000000000, 0.0000000000000000000, 0.0000000000000000000 ) ) ;
#295 = CARTESIAN_POINT ( 'NONE',  ( 6.123233995736766300E-016, 5.000000000000000000, 5.000000000000000000 ) ) ;
#296 = LINE ( 'NONE', #92, #38 ) ;
#297 = FACE_OUTER_BOUND ( 'NONE', #181, .T. ) ;
#298 = PERSON ( 'UNSPECIFIED', 'UNSPECIFIED', 'UNSPECIFIED', ('UNSPECIFIED'), ('UNSPECIFIED'), ('UNSPECIFIED') ) ;
#299 = CALENDAR_DATE ( 2014, 12, 6 ) ;
#300 = PLANE ( 'NONE',  #184 ) ;
#301 = LINE ( 'NONE', #209, #185 ) ;
#302 = ADVANCED_FACE ( 'NONE', ( #104 ), #99, .F. ) ;
#303 = CALENDAR_DATE ( 2014, 12, 6 ) ;
#304 = DIRECTION ( 'NONE',  ( 0.7071067811865474600, -0.7071067811865475700, 0.0000000000000000000 ) ) ;
#305 = DIRECTION ( 'NONE',  ( -0.7071067811865475700, -0.7071067811865474600, 0.0000000000000000000 ) ) ;
#306 = VERTEX_POINT ( 'NONE', #106 ) ;
#307 = UNCERTAINTY_MEASURE_WITH_UNIT (LENGTH_MEASURE( 1.000000000000000100E-005 ), #74, 'distance_accuracy_value', 'NONE');
#308 = CARTESIAN_POINT ( 'NONE',  ( 5.000000000000000000, 0.0000000000000000000, 5.000000000000000000 ) ) ;
#309 = EDGE_CURVE ( 'NONE', #278, #107, #296, .T. ) ;
#310 = PERSON_AND_ORGANIZATION_ROLE ( 'classification_officer' ) ;
#311 = DESIGN_CONTEXT ( 'detailed design', #35, 'design' ) ;
#312 = LOCAL_TIME ( 10, 55, 17.00000000000000000, #79 ) ;
#313 = DIRECTION ( 'NONE',  ( 1.000000000000000000, 0.0000000000000000000, 0.0000000000000000000 ) ) ;
#314 = DIRECTION ( 'NONE',  ( 0.7071067811865475700, 0.7071067811865474600, -0.0000000000000000000 ) ) ;
#315 = CARTESIAN_POINT ( 'NONE',  ( 6.123233995736766300E-016, 5.000000000000000000, 5.000000000000000000 ) ) ;
#316 = DIRECTION ( 'NONE',  ( 1.000000000000000000, 0.0000000000000000000, -0.0000000000000000000 ) ) ;
#317 = EDGE_CURVE ( 'NONE', #244, #253, #66, .T. ) ;
#318 = COORDINATED_UNIVERSAL_TIME_OFFSET ( 7, 0, .BEHIND. ) ;
#319 = ORIENTED_EDGE ( 'NONE', *, *, #275, .T. ) ;
#320 = LINE ( 'NONE', #226, #87 ) ;
#321 = APPROVAL_STATUS ( 'not_yet_approved' ) ;
ENDSEC;
END-ISO-10303-21;
