ISO-10303-21;
HEADER;
FILE_DESCRIPTION (( 'STEP AP203' ),
    '1' );
FILE_NAME ('Web Model 39290_Default.step',
    '2020-01-16T14:08:43',
    ( '' ),
    ( '' ),
    'SwSTEP 2.0',
    'SolidWorks 2018',
    '' );
FILE_SCHEMA (( 'CONFIG_CONTROL_DESIGN' ));
ENDSEC;

DATA;
#1 = PLANE ( 'NONE',  #357 ) ;
#2 = ADVANCED_FACE ( 'NONE', ( #308 ), #291, .T. ) ;
#3 = CARTESIAN_POINT ( 'NONE',  ( 6.500000000000000888, 13.50000000000000178, 0.0000000000000000000 ) ) ;
#4 = VECTOR ( 'NONE', #207, 1000.000000000000000 ) ;
#5 = ADVANCED_FACE ( 'NONE', ( #375 ), #100, .T. ) ;
#6 = VERTEX_POINT ( 'NONE', #158 ) ;
#7 = EDGE_CURVE ( 'NONE', #372, #49, #261, .T. ) ;
#8 = CARTESIAN_POINT ( 'NONE',  ( -330.1350962853218221, 2.939152317953647894E-15, -24.00000000000000000 ) ) ;
#9 = PERSON_AND_ORGANIZATION ( #19, #157 ) ;
#10 = DIRECTION ( 'NONE',  ( 0.0000000000000000000, 0.0000000000000000000, 1.000000000000000000 ) ) ;
#11 = DIRECTION ( 'NONE',  ( 0.0000000000000000000, 0.0000000000000000000, -1.000000000000000000 ) ) ;
#12 = ORIENTED_EDGE ( 'NONE', *, *, #397, .T. ) ;
#13 = VERTEX_POINT ( 'NONE', #250 ) ;
#14 = APPROVAL_DATE_TIME ( #237, #216 ) ;
#15 = SECURITY_CLASSIFICATION ( '', '', #114 ) ;
#16 = CYLINDRICAL_SURFACE ( 'NONE', #45, 20.00000000000003908 ) ;
#17 = DIRECTION ( 'NONE',  ( -1.000000000000000000, -0.0000000000000000000, -0.0000000000000000000 ) ) ;
#18 = DIRECTION ( 'NONE',  ( -1.000000000000000000, -0.0000000000000000000, -0.0000000000000000000 ) ) ;
#19 = PERSON ( 'UNSPECIFIED', 'UNSPECIFIED', 'UNSPECIFIED', ('UNSPECIFIED'), ('UNSPECIFIED'), ('UNSPECIFIED') ) ;
#20 = EDGE_LOOP ( 'NONE', ( #385, #107, #112, #285 ) ) ;
#21 = ADVANCED_FACE ( 'NONE', ( #164, #82 ), #381, .F. ) ;
#22 = DIRECTION ( 'NONE',  ( 0.0000000000000000000, 0.0000000000000000000, 1.000000000000000000 ) ) ;
#23 = EDGE_CURVE ( 'NONE', #394, #32, #36, .T. ) ;
#24 = DESIGN_CONTEXT ( 'detailed design', #275, 'design' ) ;
#25 = APPLICATION_PROTOCOL_DEFINITION ( 'international standard', 'config_control_design', 1994, #275 ) ;
#26 = ORIENTED_EDGE ( 'NONE', *, *, #227, .T. ) ;
#27 = DIRECTION ( 'NONE',  ( 0.0000000000000000000, 0.0000000000000000000, 1.000000000000000000 ) ) ;
#28 = LOCAL_TIME ( 9, 8, 43.00000000000000000, #75 ) ;
#29 = CARTESIAN_POINT ( 'NONE',  ( 4.000000000000003553, 0.0000000000000000000, 20.00000000000003553 ) ) ;
#30 =( LENGTH_UNIT ( ) NAMED_UNIT ( * ) SI_UNIT ( .MILLI., .METRE. ) );
#31 = FACE_OUTER_BOUND ( 'NONE', #331, .T. ) ;
#32 = VERTEX_POINT ( 'NONE', #221 ) ;
#33 = EDGE_CURVE ( 'NONE', #407, #64, #358, .T. ) ;
#34 = ORIENTED_EDGE ( 'NONE', *, *, #186, .F. ) ;
#35 = CC_DESIGN_APPROVAL ( #40, ( #15 ) ) ;
#36 = CIRCLE ( 'NONE', #364, 24.00000000000000000 ) ;
#37 = ORIENTED_EDGE ( 'NONE', *, *, #186, .T. ) ;
#38 = DIRECTION ( 'NONE',  ( 0.0000000000000000000, 0.0000000000000000000, 1.000000000000000000 ) ) ;
#39 = DIRECTION ( 'NONE',  ( 0.0000000000000000000, 0.0000000000000000000, 1.000000000000000000 ) ) ;
#40 = APPROVAL ( #405, 'UNSPECIFIED' ) ;
#41 = ADVANCED_FACE ( 'NONE', ( #319, #149 ), #1, .F. ) ;
#42 = APPROVAL_PERSON_ORGANIZATION ( #184, #40, #271 ) ;
#43 = ORIENTED_EDGE ( 'NONE', *, *, #79, .F. ) ;
#44 = DIRECTION ( 'NONE',  ( 0.0000000000000000000, 0.0000000000000000000, 1.000000000000000000 ) ) ;
#45 = AXIS2_PLACEMENT_3D ( 'NONE', #172, #55, #178 ) ;
#46 = CALENDAR_DATE ( 2020, 16, 1 ) ;
#47 = DIRECTION ( 'NONE',  ( -1.000000000000000000, -0.0000000000000000000, -0.0000000000000000000 ) ) ;
#48 = CYLINDRICAL_SURFACE ( 'NONE', #90, 13.50000000000000178 ) ;
#49 = VERTEX_POINT ( 'NONE', #345 ) ;
#50 = DIRECTION ( 'NONE',  ( -1.000000000000000000, -0.0000000000000000000, -0.0000000000000000000 ) ) ;
#51 = EDGE_CURVE ( 'NONE', #320, #407, #190, .T. ) ;
#52 = CARTESIAN_POINT ( 'NONE',  ( 6.500000000000005329, 0.0000000000000000000, 0.0000000000000000000 ) ) ;
#53 = PLANE ( 'NONE',  #330 ) ;
#54 = EDGE_LOOP ( 'NONE', ( #115, #210, #235, #108 ) ) ;
#55 = DIRECTION ( 'NONE',  ( -1.000000000000000000, -0.0000000000000000000, -0.0000000000000000000 ) ) ;
#56 = CYLINDRICAL_SURFACE ( 'NONE', #195, 21.00000000000002132 ) ;
#57 = PRODUCT_RELATED_PRODUCT_CATEGORY ( 'detail', '', ( #367 ) ) ;
#58 =( NAMED_UNIT ( * ) PLANE_ANGLE_UNIT ( ) SI_UNIT ( $, .RADIAN. ) );
#59 = VECTOR ( 'NONE', #194, 1000.000000000000000 ) ;
#60 = ORIENTED_EDGE ( 'NONE', *, *, #338, .F. ) ;
#61 = AXIS2_PLACEMENT_3D ( 'NONE', #52, #234, #104 ) ;
#62 = CIRCLE ( 'NONE', #366, 21.00000000000000355 ) ;
#63 = DIRECTION ( 'NONE',  ( 0.0000000000000000000, 0.0000000000000000000, 1.000000000000000000 ) ) ;
#64 = VERTEX_POINT ( 'NONE', #65 ) ;
#65 = CARTESIAN_POINT ( 'NONE',  ( 3.000000000000002665, 2.449293598294710852E-15, -20.00000000000003908 ) ) ;
#66 = VECTOR ( 'NONE', #179, 1000.000000000000000 ) ;
#67 = VERTEX_POINT ( 'NONE', #101 ) ;
#68 = AXIS2_PLACEMENT_3D ( 'NONE', #325, #256, #347 ) ;
#69 = EDGE_LOOP ( 'NONE', ( #346, #129 ) ) ;
#70 = DIRECTION ( 'NONE',  ( -1.000000000000000000, -0.0000000000000000000, -0.0000000000000000000 ) ) ;
#71 = CARTESIAN_POINT ( 'NONE',  ( -330.1350962853218221, 0.0000000000000000000, 0.0000000000000000000 ) ) ;
#72 = ADVANCED_FACE ( 'NONE', ( #339 ), #48, .F. ) ;
#73 = CARTESIAN_POINT ( 'NONE',  ( 4.000000000000003553, 0.0000000000000000000, 0.0000000000000000000 ) ) ;
#74 = VECTOR ( 'NONE', #323, 1000.000000000000000 ) ;
#75 = COORDINATED_UNIVERSAL_TIME_OFFSET ( 5, 0, .BEHIND. ) ;
#76 = CC_DESIGN_PERSON_AND_ORGANIZATION_ASSIGNMENT ( #89, #404, ( #187 ) ) ;
#77 = DIRECTION ( 'NONE',  ( 0.0000000000000000000, 0.0000000000000000000, 1.000000000000000000 ) ) ;
#78 = DIRECTION ( 'NONE',  ( -1.000000000000000000, -0.0000000000000000000, -0.0000000000000000000 ) ) ;
#79 = EDGE_CURVE ( 'NONE', #111, #136, #335, .T. ) ;
#80 = VERTEX_POINT ( 'NONE', #290 ) ;
#81 = MECHANICAL_CONTEXT ( 'NONE', #365, 'mechanical' ) ;
#82 = FACE_BOUND ( 'NONE', #240, .T. ) ;
#83 = ORIENTED_EDGE ( 'NONE', *, *, #254, .F. ) ;
#84 = DIRECTION ( 'NONE',  ( -1.000000000000000000, -0.0000000000000000000, -0.0000000000000000000 ) ) ;
#85 = CARTESIAN_POINT ( 'NONE',  ( 0.0000000000000000000, 0.0000000000000000000, 0.0000000000000000000 ) ) ;
#86 =( NAMED_UNIT ( * ) SI_UNIT ( $, .STERADIAN. ) SOLID_ANGLE_UNIT ( ) );
#87 = CYLINDRICAL_SURFACE ( 'NONE', #324, 13.50000000000000178 ) ;
#88 = ORIENTED_EDGE ( 'NONE', *, *, #23, .F. ) ;
#89 = PERSON_AND_ORGANIZATION ( #19, #157 ) ;
#90 = AXIS2_PLACEMENT_3D ( 'NONE', #71, #318, #38 ) ;
#91 = FACE_OUTER_BOUND ( 'NONE', #408, .T. ) ;
#92 = EDGE_LOOP ( 'NONE', ( #209, #12, #177, #169 ) ) ;
#93 = ORIENTED_EDGE ( 'NONE', *, *, #397, .F. ) ;
#94 = COORDINATED_UNIVERSAL_TIME_OFFSET ( 5, 0, .BEHIND. ) ;
#95 = FACE_OUTER_BOUND ( 'NONE', #92, .T. ) ;
#96 = EDGE_LOOP ( 'NONE', ( #217, #297, #193, #60 ) ) ;
#97 = VERTEX_POINT ( 'NONE', #386 ) ;
#98 = APPROVAL_DATE_TIME ( #352, #40 ) ;
#99 = DIRECTION ( 'NONE',  ( -1.000000000000000000, -0.0000000000000000000, -0.0000000000000000000 ) ) ;
#100 = CYLINDRICAL_SURFACE ( 'NONE', #380, 24.00000000000000000 ) ;
#101 = CARTESIAN_POINT ( 'NONE',  ( 0.0000000000000000000, 0.0000000000000000000, 13.50000000000000178 ) ) ;
#102 = CARTESIAN_POINT ( 'NONE',  ( 0.0000000000000000000, 0.0000000000000000000, 0.0000000000000000000 ) ) ;
#103 = APPROVAL_DATE_TIME ( #133, #313 ) ;
#104 = DIRECTION ( 'NONE',  ( 0.0000000000000000000, 0.0000000000000000000, 1.000000000000000000 ) ) ;
#105 = LINE ( 'NONE', #362, #249 ) ;
#106 = DIRECTION ( 'NONE',  ( -1.000000000000000000, -0.0000000000000000000, -0.0000000000000000000 ) ) ;
#107 = ORIENTED_EDGE ( 'NONE', *, *, #396, .T. ) ;
#108 = ORIENTED_EDGE ( 'NONE', *, *, #171, .F. ) ;
#109 = AXIS2_PLACEMENT_3D ( 'NONE', #354, #197, #262 ) ;
#110 = APPROVAL_ROLE ( '' ) ;
#111 = VERTEX_POINT ( 'NONE', #294 ) ;
#112 = ORIENTED_EDGE ( 'NONE', *, *, #159, .F. ) ;
#113 = APPROVAL_STATUS ( 'not_yet_approved' ) ;
#114 = SECURITY_CLASSIFICATION_LEVEL ( 'unclassified' ) ;
#115 = ORIENTED_EDGE ( 'NONE', *, *, #242, .F. ) ;
#116 = EDGE_LOOP ( 'NONE', ( #37, #137, #88, #150 ) ) ;
#117 = EDGE_CURVE ( 'NONE', #372, #32, #315, .T. ) ;
#118 = ORIENTED_EDGE ( 'NONE', *, *, #141, .F. ) ;
#119 = COORDINATED_UNIVERSAL_TIME_OFFSET ( 5, 0, .BEHIND. ) ;
#120 = DIRECTION ( 'NONE',  ( -0.0000000000000000000, 0.0000000000000000000, 1.000000000000000000 ) ) ;
#121 = FACE_OUTER_BOUND ( 'NONE', #20, .T. ) ;
#122 = AXIS2_PLACEMENT_3D ( 'NONE', #337, #304, #276 ) ;
#123 = CIRCLE ( 'NONE', #68, 21.00000000000003908 ) ;
#124 = DIRECTION ( 'NONE',  ( 0.0000000000000000000, 0.0000000000000000000, 1.000000000000000000 ) ) ;
#125 = DIRECTION ( 'NONE',  ( -1.000000000000000000, -0.0000000000000000000, -0.0000000000000000000 ) ) ;
#126 = DIRECTION ( 'NONE',  ( -1.000000000000000000, -0.0000000000000000000, -0.0000000000000000000 ) ) ;
#127 = AXIS2_PLACEMENT_3D ( 'NONE', #395, #18, #77 ) ;
#128 = DIRECTION ( 'NONE',  ( 0.0000000000000000000, 0.0000000000000000000, 1.000000000000000000 ) ) ;
#129 = ORIENTED_EDGE ( 'NONE', *, *, #154, .F. ) ;
#130 = EDGE_LOOP ( 'NONE', ( #392, #93 ) ) ;
#131 = CARTESIAN_POINT ( 'NONE',  ( 0.0000000000000000000, 1.653273178848927064E-15, -13.50000000000000178 ) ) ;
#132 = CARTESIAN_POINT ( 'NONE',  ( 0.0000000000000000000, 0.0000000000000000000, 0.0000000000000000000 ) ) ;
#133 = DATE_AND_TIME ( #302, #144 ) ;
#134 = PLANE ( 'NONE',  #373 ) ;
#135 = DIRECTION ( 'NONE',  ( 0.0000000000000000000, 0.0000000000000000000, 1.000000000000000000 ) ) ;
#136 = VERTEX_POINT ( 'NONE', #131 ) ;
#137 = ORIENTED_EDGE ( 'NONE', *, *, #117, .T. ) ;
#138 = CARTESIAN_POINT ( 'NONE',  ( -330.1350962853218221, 0.0000000000000000000, 24.00000000000000000 ) ) ;
#139 = EDGE_CURVE ( 'NONE', #67, #136, #155, .T. ) ;
#140 = ADVANCED_FACE ( 'NONE', ( #278 ), #296, .T. ) ;
#141 = EDGE_CURVE ( 'NONE', #6, #111, #369, .T. ) ;
#142 = ORIENTED_EDGE ( 'NONE', *, *, #151, .T. ) ;
#143 = DIRECTION ( 'NONE',  ( -1.000000000000000000, -0.0000000000000000000, -0.0000000000000000000 ) ) ;
#144 = LOCAL_TIME ( 9, 8, 43.00000000000000000, #94 ) ;
#145 = CC_DESIGN_APPROVAL ( #313, ( #384 ) ) ;
#146 = LINE ( 'NONE', #359, #174 ) ;
#147 = CC_DESIGN_PERSON_AND_ORGANIZATION_ASSIGNMENT ( #274, #212, ( #367 ) ) ;
#148 = DATE_TIME_ROLE ( 'creation_date' ) ;
#149 = FACE_OUTER_BOUND ( 'NONE', #379, .T. ) ;
#150 = ORIENTED_EDGE ( 'NONE', *, *, #203, .F. ) ;
#151 = EDGE_CURVE ( 'NONE', #198, #97, #123, .T. ) ;
#152 = ORIENTED_EDGE ( 'NONE', *, *, #242, .T. ) ;
#153 = PERSON_AND_ORGANIZATION ( #19, #157 ) ;
#154 = EDGE_CURVE ( 'NONE', #176, #320, #265, .T. ) ;
#155 = CIRCLE ( 'NONE', #206, 13.50000000000000178 ) ;
#156 = ORIENTED_EDGE ( 'NONE', *, *, #139, .T. ) ;
#157 = ORGANIZATION ( 'UNSPECIFIED', 'UNSPECIFIED', '' ) ;
#158 = CARTESIAN_POINT ( 'NONE',  ( 6.500000000000005329, 0.0000000000000000000, 13.50000000000000178 ) ) ;
#159 = EDGE_CURVE ( 'NONE', #97, #198, #239, .T. ) ;
#160 = DIRECTION ( 'NONE',  ( -1.000000000000000000, -0.0000000000000000000, -0.0000000000000000000 ) ) ;
#161 = ADVANCED_FACE ( 'NONE', ( #95 ), #168, .T. ) ;
#162 = ORIENTED_EDGE ( 'NONE', *, *, #141, .T. ) ;
#163 = CARTESIAN_POINT ( 'NONE',  ( 4.000000000000003553, 0.0000000000000000000, 0.0000000000000000000 ) ) ;
#164 = FACE_OUTER_BOUND ( 'NONE', #130, .T. ) ;
#165 = AXIS2_PLACEMENT_3D ( 'NONE', #85, #268, #334 ) ;
#166 = CARTESIAN_POINT ( 'NONE',  ( 3.999999999999998224, 21.00000000000003908, 0.0000000000000000000 ) ) ;
#167 = CARTESIAN_POINT ( 'NONE',  ( 3.000000000000002665, 0.0000000000000000000, 0.0000000000000000000 ) ) ;
#168 = CYLINDRICAL_SURFACE ( 'NONE', #409, 21.00000000000002132 ) ;
#169 = ORIENTED_EDGE ( 'NONE', *, *, #151, .F. ) ;
#170 = ORIENTED_EDGE ( 'NONE', *, *, #159, .T. ) ;
#171 = EDGE_CURVE ( 'NONE', #6, #67, #402, .T. ) ;
#172 = CARTESIAN_POINT ( 'NONE',  ( -330.1350962853218221, 0.0000000000000000000, 0.0000000000000000000 ) ) ;
#173 = PERSON_AND_ORGANIZATION_ROLE ( 'classification_officer' ) ;
#174 = VECTOR ( 'NONE', #47, 1000.000000000000000 ) ;
#175 = APPLICATION_PROTOCOL_DEFINITION ( 'international standard', 'config_control_design', 1994, #365 ) ;
#176 = VERTEX_POINT ( 'NONE', #238 ) ;
#177 = ORIENTED_EDGE ( 'NONE', *, *, #322, .T. ) ;
#178 = DIRECTION ( 'NONE',  ( 0.0000000000000000000, 0.0000000000000000000, 1.000000000000000000 ) ) ;
#179 = DIRECTION ( 'NONE',  ( -1.000000000000000000, -0.0000000000000000000, -0.0000000000000000000 ) ) ;
#180 = AXIS2_PLACEMENT_3D ( 'NONE', #199, #160, #39 ) ;
#181 = ORIENTED_EDGE ( 'NONE', *, *, #219, .T. ) ;
#182 = CIRCLE ( 'NONE', #406, 20.00000000000003553 ) ;
#183 = EDGE_LOOP ( 'NONE', ( #181, #26, #363, #340 ) ) ;
#184 = PERSON_AND_ORGANIZATION ( #19, #157 ) ;
#185 = APPROVAL_PERSON_ORGANIZATION ( #382, #216, #110 ) ;
#186 = EDGE_CURVE ( 'NONE', #49, #372, #251, .T. ) ;
#187 = PRODUCT_DEFINITION ( 'UNKNOWN', '', #384, #24 ) ;
#188 = FACE_BOUND ( 'NONE', #69, .T. ) ;
#189 = DIRECTION ( 'NONE',  ( 0.0000000000000000000, 0.0000000000000000000, 1.000000000000000000 ) ) ;
#190 = LINE ( 'NONE', #231, #391 ) ;
#191 = ORIENTED_EDGE ( 'NONE', *, *, #33, .T. ) ;
#192 = CARTESIAN_POINT ( 'NONE',  ( -330.1350962853218221, 0.0000000000000000000, 0.0000000000000000000 ) ) ;
#193 = ORIENTED_EDGE ( 'NONE', *, *, #51, .T. ) ;
#194 = DIRECTION ( 'NONE',  ( -1.000000000000000000, -0.0000000000000000000, -0.0000000000000000000 ) ) ;
#195 = AXIS2_PLACEMENT_3D ( 'NONE', #202, #17, #299 ) ;
#196 = CARTESIAN_POINT ( 'NONE',  ( -330.1350962853218221, 1.653273178848927064E-15, -13.50000000000000178 ) ) ;
#197 = DIRECTION ( 'NONE',  ( -1.000000000000000000, -0.0000000000000000000, -0.0000000000000000000 ) ) ;
#198 = VERTEX_POINT ( 'NONE', #361 ) ;
#199 = CARTESIAN_POINT ( 'NONE',  ( 3.000000000000002665, 0.0000000000000000000, 0.0000000000000000000 ) ) ;
#200 = APPROVAL_PERSON_ORGANIZATION ( #332, #313, #215 ) ;
#201 = DIRECTION ( 'NONE',  ( 0.0000000000000000000, 0.0000000000000000000, 1.000000000000000000 ) ) ;
#202 = CARTESIAN_POINT ( 'NONE',  ( -330.1350962853218221, 0.0000000000000000000, 0.0000000000000000000 ) ) ;
#203 = EDGE_CURVE ( 'NONE', #49, #394, #233, .T. ) ;
#204 = CARTESIAN_POINT ( 'NONE',  ( 4.000000000000003553, 0.0000000000000000000, 0.0000000000000000000 ) ) ;
#205 = EDGE_LOOP ( 'NONE', ( #273, #241, #245, #230 ) ) ;
#206 = AXIS2_PLACEMENT_3D ( 'NONE', #102, #70, #44 ) ;
#207 = DIRECTION ( 'NONE',  ( -1.000000000000000000, -0.0000000000000000000, -0.0000000000000000000 ) ) ;
#208 = CARTESIAN_POINT ( 'NONE',  ( -330.1350962853218221, 0.0000000000000000000, 0.0000000000000000000 ) ) ;
#209 = ORIENTED_EDGE ( 'NONE', *, *, #396, .F. ) ;
#210 = ORIENTED_EDGE ( 'NONE', *, *, #79, .T. ) ;
#211 = CARTESIAN_POINT ( 'NONE',  ( 6.500000000000005329, 0.0000000000000000000, 0.0000000000000000000 ) ) ;
#212 = PERSON_AND_ORGANIZATION_ROLE ( 'design_owner' ) ;
#213 = LOCAL_TIME ( 9, 8, 43.00000000000000000, #289 ) ;
#214 = LINE ( 'NONE', #306, #66 ) ;
#215 = APPROVAL_ROLE ( '' ) ;
#216 = APPROVAL ( #113, 'UNSPECIFIED' ) ;
#217 = ORIENTED_EDGE ( 'NONE', *, *, #227, .F. ) ;
#218 = PERSON_AND_ORGANIZATION ( #19, #157 ) ;
#219 = EDGE_CURVE ( 'NONE', #320, #176, #182, .T. ) ;
#220 =( GEOMETRIC_REPRESENTATION_CONTEXT ( 3 ) GLOBAL_UNCERTAINTY_ASSIGNED_CONTEXT ( ( #226 ) ) GLOBAL_UNIT_ASSIGNED_CONTEXT ( ( #30, #58, #86 ) ) REPRESENTATION_CONTEXT ( 'NONE', 'WORKASPACE' ) );
#221 = CARTESIAN_POINT ( 'NONE',  ( 0.0000000000000000000, 2.939152317953647894E-15, -24.00000000000000000 ) ) ;
#222 = FACE_OUTER_BOUND ( 'NONE', #183, .T. ) ;
#223 = FACE_OUTER_BOUND ( 'NONE', #279, .T. ) ;
#224 = SHAPE_DEFINITION_REPRESENTATION ( #351, #314 ) ;
#225 = DIRECTION ( 'NONE',  ( -1.000000000000000000, 0.0000000000000000000, -0.0000000000000000000 ) ) ;
#226 = UNCERTAINTY_MEASURE_WITH_UNIT (LENGTH_MEASURE( 1.000000000000000082E-05 ), #30, 'distance_accuracy_value', 'NONE');
#227 = EDGE_CURVE ( 'NONE', #176, #64, #146, .T. ) ;
#228 = DIRECTION ( 'NONE',  ( -1.000000000000000000, -0.0000000000000000000, -0.0000000000000000000 ) ) ;
#229 = CARTESIAN_POINT ( 'NONE',  ( 6.505213034913026604E-16, 24.00000000000000000, 0.0000000000000000000 ) ) ;
#230 = ORIENTED_EDGE ( 'NONE', *, *, #248, .F. ) ;
#231 = CARTESIAN_POINT ( 'NONE',  ( -330.1350962853218221, 0.0000000000000000000, 20.00000000000003908 ) ) ;
#232 = ADVANCED_FACE ( 'NONE', ( #223, #284 ), #53, .F. ) ;
#233 = LINE ( 'NONE', #138, #329 ) ;
#234 = DIRECTION ( 'NONE',  ( -1.000000000000000000, -0.0000000000000000000, -0.0000000000000000000 ) ) ;
#235 = ORIENTED_EDGE ( 'NONE', *, *, #254, .T. ) ;
#236 = EDGE_CURVE ( 'NONE', #80, #13, #311, .T. ) ;
#237 = DATE_AND_TIME ( #316, #28 ) ;
#238 = CARTESIAN_POINT ( 'NONE',  ( 4.000000000000003553, 2.449293598294710457E-15, -20.00000000000003553 ) ) ;
#239 = CIRCLE ( 'NONE', #344, 21.00000000000003908 ) ;
#240 = EDGE_LOOP ( 'NONE', ( #162, #152 ) ) ;
#241 = ORIENTED_EDGE ( 'NONE', *, *, #7, .T. ) ;
#242 = EDGE_CURVE ( 'NONE', #111, #6, #270, .T. ) ;
#243 = APPROVAL_STATUS ( 'not_yet_approved' ) ;
#244 = DIRECTION ( 'NONE',  ( 0.0000000000000000000, 0.0000000000000000000, 1.000000000000000000 ) ) ;
#245 = ORIENTED_EDGE ( 'NONE', *, *, #203, .T. ) ;
#246 = CARTESIAN_POINT ( 'NONE',  ( 0.0000000000000000000, 0.0000000000000000000, 24.00000000000000000 ) ) ;
#247 = CARTESIAN_POINT ( 'NONE',  ( 3.000000000000002665, 0.0000000000000000000, 20.00000000000003908 ) ) ;
#248 = EDGE_CURVE ( 'NONE', #32, #394, #295, .T. ) ;
#249 = VECTOR ( 'NONE', #84, 1000.000000000000000 ) ;
#250 = CARTESIAN_POINT ( 'NONE',  ( 6.500000000000005329, 2.571758278209443633E-15, -21.00000000000000355 ) ) ;
#251 = CIRCLE ( 'NONE', #310, 24.00000000000000000 ) ;
#252 = CLOSED_SHELL ( 'NONE', ( #2, #398, #287, #72, #41, #388, #21, #161, #260, #140, #232, #5 ) ) ;
#253 = ORIENTED_EDGE ( 'NONE', *, *, #338, .T. ) ;
#254 = EDGE_CURVE ( 'NONE', #136, #67, #269, .T. ) ;
#255 = DIRECTION ( 'NONE',  ( -1.000000000000000000, -0.0000000000000000000, -0.0000000000000000000 ) ) ;
#256 = DIRECTION ( 'NONE',  ( -1.000000000000000000, -0.0000000000000000000, -0.0000000000000000000 ) ) ;
#257 = CC_DESIGN_SECURITY_CLASSIFICATION ( #15, ( #384 ) ) ;
#258 = ORIENTED_EDGE ( 'NONE', *, *, #139, .F. ) ;
#259 = DIRECTION ( 'NONE',  ( 0.0000000000000000000, 0.0000000000000000000, 1.000000000000000000 ) ) ;
#260 = ADVANCED_FACE ( 'NONE', ( #188, #31 ), #134, .F. ) ;
#261 = CIRCLE ( 'NONE', #288, 24.00000000000000000 ) ;
#262 = DIRECTION ( 'NONE',  ( 0.0000000000000000000, 0.0000000000000000000, 1.000000000000000000 ) ) ;
#263 = CC_DESIGN_DATE_AND_TIME_ASSIGNMENT ( #272, #368, ( #15 ) ) ;
#264 = CARTESIAN_POINT ( 'NONE',  ( 2.999999999999998224, 20.00000000000003908, 0.0000000000000000000 ) ) ;
#265 = CIRCLE ( 'NONE', #305, 20.00000000000003553 ) ;
#266 = DIRECTION ( 'NONE',  ( 0.0000000000000000000, 0.0000000000000000000, 1.000000000000000000 ) ) ;
#267 = DIRECTION ( 'NONE',  ( -0.0000000000000000000, 0.0000000000000000000, 1.000000000000000000 ) ) ;
#268 = DIRECTION ( 'NONE',  ( 0.0000000000000000000, 0.0000000000000000000, 1.000000000000000000 ) ) ;
#269 = CIRCLE ( 'NONE', #387, 13.50000000000000178 ) ;
#270 = CIRCLE ( 'NONE', #61, 13.50000000000000178 ) ;
#271 = APPROVAL_ROLE ( '' ) ;
#272 = DATE_AND_TIME ( #281, #371 ) ;
#273 = ORIENTED_EDGE ( 'NONE', *, *, #117, .F. ) ;
#274 = PERSON_AND_ORGANIZATION ( #19, #157 ) ;
#275 = APPLICATION_CONTEXT ( 'configuration controlled 3d designs of mechanical parts and assemblies' ) ;
#276 = DIRECTION ( 'NONE',  ( 0.0000000000000000000, 0.0000000000000000000, 1.000000000000000000 ) ) ;
#277 = DIRECTION ( 'NONE',  ( -1.000000000000000000, -0.0000000000000000000, -0.0000000000000000000 ) ) ;
#278 = FACE_OUTER_BOUND ( 'NONE', #96, .T. ) ;
#279 = EDGE_LOOP ( 'NONE', ( #34, #286 ) ) ;
#280 = AXIS2_PLACEMENT_3D ( 'NONE', #3, #225, #120 ) ;
#281 = CALENDAR_DATE ( 2020, 16, 1 ) ;
#282 = DATE_AND_TIME ( #333, #300 ) ;
#283 = CIRCLE ( 'NONE', #122, 20.00000000000003908 ) ;
#284 = FACE_BOUND ( 'NONE', #374, .T. ) ;
#285 = ORIENTED_EDGE ( 'NONE', *, *, #322, .F. ) ;
#286 = ORIENTED_EDGE ( 'NONE', *, *, #7, .F. ) ;
#287 = ADVANCED_FACE ( 'NONE', ( #121 ), #56, .T. ) ;
#288 = AXIS2_PLACEMENT_3D ( 'NONE', #341, #312, #124 ) ;
#289 = COORDINATED_UNIVERSAL_TIME_OFFSET ( 5, 0, .BEHIND. ) ;
#290 = CARTESIAN_POINT ( 'NONE',  ( 6.500000000000005329, 0.0000000000000000000, 21.00000000000000355 ) ) ;
#291 = CYLINDRICAL_SURFACE ( 'NONE', #317, 24.00000000000000000 ) ;
#292 = COORDINATED_UNIVERSAL_TIME_OFFSET ( 5, 0, .BEHIND. ) ;
#293 = DIRECTION ( 'NONE',  ( 0.0000000000000000000, 0.0000000000000000000, 1.000000000000000000 ) ) ;
#294 = CARTESIAN_POINT ( 'NONE',  ( 6.500000000000005329, 1.653273178848927064E-15, -13.50000000000000178 ) ) ;
#295 = CIRCLE ( 'NONE', #127, 24.00000000000000000 ) ;
#296 = CYLINDRICAL_SURFACE ( 'NONE', #399, 20.00000000000003908 ) ;
#297 = ORIENTED_EDGE ( 'NONE', *, *, #154, .T. ) ;
#298 = CC_DESIGN_APPROVAL ( #216, ( #187 ) ) ;
#299 = DIRECTION ( 'NONE',  ( 0.0000000000000000000, 0.0000000000000000000, 1.000000000000000000 ) ) ;
#300 = LOCAL_TIME ( 9, 8, 43.00000000000000000, #292 ) ;
#301 = CARTESIAN_POINT ( 'NONE',  ( 6.500000000000005329, 0.0000000000000000000, 0.0000000000000000000 ) ) ;
#302 = CALENDAR_DATE ( 2020, 16, 1 ) ;
#303 = DIRECTION ( 'NONE',  ( -1.000000000000000000, -0.0000000000000000000, -0.0000000000000000000 ) ) ;
#304 = DIRECTION ( 'NONE',  ( -1.000000000000000000, -0.0000000000000000000, -0.0000000000000000000 ) ) ;
#305 = AXIS2_PLACEMENT_3D ( 'NONE', #73, #383, #259 ) ;
#306 = CARTESIAN_POINT ( 'NONE',  ( -330.1350962853218221, 2.571758278209444422E-15, -21.00000000000002132 ) ) ;
#307 = PERSON_AND_ORGANIZATION_ROLE ( 'creator' ) ;
#308 = FACE_OUTER_BOUND ( 'NONE', #116, .T. ) ;
#309 = PERSON_AND_ORGANIZATION_ROLE ( 'design_supplier' ) ;
#310 = AXIS2_PLACEMENT_3D ( 'NONE', #167, #327, #22 ) ;
#311 = CIRCLE ( 'NONE', #348, 21.00000000000000355 ) ;
#312 = DIRECTION ( 'NONE',  ( -1.000000000000000000, -0.0000000000000000000, -0.0000000000000000000 ) ) ;
#313 = APPROVAL ( #243, 'UNSPECIFIED' ) ;
#314 = ADVANCED_BREP_SHAPE_REPRESENTATION ( 'Web Model 39290_Default', ( #400, #165 ), #220 ) ;
#315 = LINE ( 'NONE', #8, #74 ) ;
#316 = CALENDAR_DATE ( 2020, 16, 1 ) ;
#317 = AXIS2_PLACEMENT_3D ( 'NONE', #376, #255, #63 ) ;
#318 = DIRECTION ( 'NONE',  ( -1.000000000000000000, -0.0000000000000000000, -0.0000000000000000000 ) ) ;
#319 = FACE_BOUND ( 'NONE', #360, .T. ) ;
#320 = VERTEX_POINT ( 'NONE', #29 ) ;
#321 = DIRECTION ( 'NONE',  ( 0.0000000000000000000, 0.0000000000000000000, 1.000000000000000000 ) ) ;
#322 = EDGE_CURVE ( 'NONE', #80, #97, #105, .T. ) ;
#323 = DIRECTION ( 'NONE',  ( -1.000000000000000000, -0.0000000000000000000, -0.0000000000000000000 ) ) ;
#324 = AXIS2_PLACEMENT_3D ( 'NONE', #208, #143, #244 ) ;
#325 = CARTESIAN_POINT ( 'NONE',  ( 4.000000000000003553, 0.0000000000000000000, 0.0000000000000000000 ) ) ;
#326 = CARTESIAN_POINT ( 'NONE',  ( 0.0000000000000000000, 0.0000000000000000000, 0.0000000000000000000 ) ) ;
#327 = DIRECTION ( 'NONE',  ( -1.000000000000000000, -0.0000000000000000000, -0.0000000000000000000 ) ) ;
#328 = CARTESIAN_POINT ( 'NONE',  ( -330.1350962853218221, 0.0000000000000000000, 13.50000000000000178 ) ) ;
#329 = VECTOR ( 'NONE', #50, 1000.000000000000000 ) ;
#330 = AXIS2_PLACEMENT_3D ( 'NONE', #264, #390, #267 ) ;
#331 = EDGE_LOOP ( 'NONE', ( #170, #142 ) ) ;
#332 = PERSON_AND_ORGANIZATION ( #19, #157 ) ;
#333 = CALENDAR_DATE ( 2020, 16, 1 ) ;
#334 = DIRECTION ( 'NONE',  ( 1.000000000000000000, 0.0000000000000000000, 0.0000000000000000000 ) ) ;
#335 = LINE ( 'NONE', #196, #59 ) ;
#336 = CC_DESIGN_PERSON_AND_ORGANIZATION_ASSIGNMENT ( #9, #307, ( #384 ) ) ;
#337 = CARTESIAN_POINT ( 'NONE',  ( 3.000000000000002665, 0.0000000000000000000, 0.0000000000000000000 ) ) ;
#338 = EDGE_CURVE ( 'NONE', #64, #407, #283, .T. ) ;
#339 = FACE_OUTER_BOUND ( 'NONE', #54, .T. ) ;
#340 = ORIENTED_EDGE ( 'NONE', *, *, #51, .F. ) ;
#341 = CARTESIAN_POINT ( 'NONE',  ( 3.000000000000002665, 0.0000000000000000000, 0.0000000000000000000 ) ) ;
#342 = ORIENTED_EDGE ( 'NONE', *, *, #248, .T. ) ;
#343 = ORIENTED_EDGE ( 'NONE', *, *, #23, .T. ) ;
#344 = AXIS2_PLACEMENT_3D ( 'NONE', #163, #353, #10 ) ;
#345 = CARTESIAN_POINT ( 'NONE',  ( 3.000000000000002665, 0.0000000000000000000, 24.00000000000000000 ) ) ;
#346 = ORIENTED_EDGE ( 'NONE', *, *, #219, .F. ) ;
#347 = DIRECTION ( 'NONE',  ( 0.0000000000000000000, 0.0000000000000000000, 1.000000000000000000 ) ) ;
#348 = AXIS2_PLACEMENT_3D ( 'NONE', #301, #78, #266 ) ;
#349 = DIRECTION ( 'NONE',  ( -1.000000000000000000, -0.0000000000000000000, -0.0000000000000000000 ) ) ;
#350 = CARTESIAN_POINT ( 'NONE',  ( -330.1350962853218221, 0.0000000000000000000, 0.0000000000000000000 ) ) ;
#351 = PRODUCT_DEFINITION_SHAPE ( 'NONE', 'NONE',  #187 ) ;
#352 = DATE_AND_TIME ( #46, #213 ) ;
#353 = DIRECTION ( 'NONE',  ( -1.000000000000000000, -0.0000000000000000000, -0.0000000000000000000 ) ) ;
#354 = CARTESIAN_POINT ( 'NONE',  ( 6.500000000000005329, 0.0000000000000000000, 0.0000000000000000000 ) ) ;
#355 = CC_DESIGN_PERSON_AND_ORGANIZATION_ASSIGNMENT ( #153, #309, ( #384 ) ) ;
#356 = DIRECTION ( 'NONE',  ( 1.000000000000000000, 0.0000000000000000000, 0.0000000000000000000 ) ) ;
#357 = AXIS2_PLACEMENT_3D ( 'NONE', #229, #389, #11 ) ;
#358 = CIRCLE ( 'NONE', #180, 20.00000000000003908 ) ;
#359 = CARTESIAN_POINT ( 'NONE',  ( -330.1350962853218221, 2.449293598294710852E-15, -20.00000000000003908 ) ) ;
#360 = EDGE_LOOP ( 'NONE', ( #258, #83 ) ) ;
#361 = CARTESIAN_POINT ( 'NONE',  ( 4.000000000000003553, 2.571758278209446789E-15, -21.00000000000003908 ) ) ;
#362 = CARTESIAN_POINT ( 'NONE',  ( -330.1350962853218221, 0.0000000000000000000, 21.00000000000002132 ) ) ;
#363 = ORIENTED_EDGE ( 'NONE', *, *, #33, .F. ) ;
#364 = AXIS2_PLACEMENT_3D ( 'NONE', #132, #228, #321 ) ;
#365 = APPLICATION_CONTEXT ( 'configuration controlled 3d designs of mechanical parts and assemblies' ) ;
#366 = AXIS2_PLACEMENT_3D ( 'NONE', #211, #277, #27 ) ;
#367 = PRODUCT ( 'Web Model 39290_Default', 'Web Model 39290_Default', '', ( #81 ) ) ;
#368 = DATE_TIME_ROLE ( 'classification_date' ) ;
#369 = CIRCLE ( 'NONE', #109, 13.50000000000000178 ) ;
#370 = ORIENTED_EDGE ( 'NONE', *, *, #171, .T. ) ;
#371 = LOCAL_TIME ( 9, 8, 43.00000000000000000, #119 ) ;
#372 = VERTEX_POINT ( 'NONE', #401 ) ;
#373 = AXIS2_PLACEMENT_3D ( 'NONE', #166, #356, #393 ) ;
#374 = EDGE_LOOP ( 'NONE', ( #191, #253 ) ) ;
#375 = FACE_OUTER_BOUND ( 'NONE', #205, .T. ) ;
#376 = CARTESIAN_POINT ( 'NONE',  ( -330.1350962853218221, 0.0000000000000000000, 0.0000000000000000000 ) ) ;
#377 = CC_DESIGN_PERSON_AND_ORGANIZATION_ASSIGNMENT ( #218, #173, ( #15 ) ) ;
#378 = CARTESIAN_POINT ( 'NONE',  ( -330.1350962853218221, 0.0000000000000000000, 0.0000000000000000000 ) ) ;
#379 = EDGE_LOOP ( 'NONE', ( #343, #342 ) ) ;
#380 = AXIS2_PLACEMENT_3D ( 'NONE', #378, #125, #189 ) ;
#381 = PLANE ( 'NONE',  #280 ) ;
#382 = PERSON_AND_ORGANIZATION ( #19, #157 ) ;
#383 = DIRECTION ( 'NONE',  ( -1.000000000000000000, -0.0000000000000000000, -0.0000000000000000000 ) ) ;
#384 = PRODUCT_DEFINITION_FORMATION_WITH_SPECIFIED_SOURCE ( 'ANY', '', #367, .NOT_KNOWN. ) ;
#385 = ORIENTED_EDGE ( 'NONE', *, *, #236, .T. ) ;
#386 = CARTESIAN_POINT ( 'NONE',  ( 4.000000000000003553, 0.0000000000000000000, 21.00000000000003908 ) ) ;
#387 = AXIS2_PLACEMENT_3D ( 'NONE', #326, #106, #135 ) ;
#388 = ADVANCED_FACE ( 'NONE', ( #91 ), #87, .F. ) ;
#389 = DIRECTION ( 'NONE',  ( 1.000000000000000000, 0.0000000000000000000, 0.0000000000000000000 ) ) ;
#390 = DIRECTION ( 'NONE',  ( -1.000000000000000000, 0.0000000000000000000, -0.0000000000000000000 ) ) ;
#391 = VECTOR ( 'NONE', #349, 1000.000000000000000 ) ;
#392 = ORIENTED_EDGE ( 'NONE', *, *, #236, .F. ) ;
#393 = DIRECTION ( 'NONE',  ( 0.0000000000000000000, 0.0000000000000000000, -1.000000000000000000 ) ) ;
#394 = VERTEX_POINT ( 'NONE', #246 ) ;
#395 = CARTESIAN_POINT ( 'NONE',  ( 0.0000000000000000000, 0.0000000000000000000, 0.0000000000000000000 ) ) ;
#396 = EDGE_CURVE ( 'NONE', #13, #198, #214, .T. ) ;
#397 = EDGE_CURVE ( 'NONE', #13, #80, #62, .T. ) ;
#398 = ADVANCED_FACE ( 'NONE', ( #222 ), #16, .T. ) ;
#399 = AXIS2_PLACEMENT_3D ( 'NONE', #350, #99, #293 ) ;
#400 = MANIFOLD_SOLID_BREP ( 'Revolve1', #252 ) ;
#401 = CARTESIAN_POINT ( 'NONE',  ( 3.000000000000002665, 2.939152317953647894E-15, -24.00000000000000000 ) ) ;
#402 = LINE ( 'NONE', #328, #4 ) ;
#403 = CC_DESIGN_DATE_AND_TIME_ASSIGNMENT ( #282, #148, ( #187 ) ) ;
#404 = PERSON_AND_ORGANIZATION_ROLE ( 'creator' ) ;
#405 = APPROVAL_STATUS ( 'not_yet_approved' ) ;
#406 = AXIS2_PLACEMENT_3D ( 'NONE', #204, #303, #201 ) ;
#407 = VERTEX_POINT ( 'NONE', #247 ) ;
#408 = EDGE_LOOP ( 'NONE', ( #43, #118, #370, #156 ) ) ;
#409 = AXIS2_PLACEMENT_3D ( 'NONE', #192, #126, #128 ) ;
ENDSEC;
END-ISO-10303-21;
