ISO-10303-21;
HEADER;
FILE_DESCRIPTION (( 'STEP AP203' ),
    '1' );
FILE_NAME ('Web Model Lightsmyth Gratings_16871.step',
    '2021-03-11T20:26:47',
    ( '' ),
    ( '' ),
    'SwSTEP 2.0',
    'SolidWorks 2018',
    '' );
FILE_SCHEMA (( 'CONFIG_CONTROL_DESIGN' ));
ENDSEC;

DATA;
#1 = CARTESIAN_POINT ( 'NONE',  ( -60.00000000000002132, -10.00000000000000178, 0.0000000000000000000 ) ) ;
#2 = SECURITY_CLASSIFICATION ( '', '', #190 ) ;
#3 = PLANE ( 'NONE',  #131 ) ;
#4 = LINE ( 'NONE', #124, #167 ) ;
#5 = VERTEX_POINT ( 'NONE', #24 ) ;
#6 = LOCAL_TIME ( 15, 26, 47.00000000000000000, #62 ) ;
#7 = ORIENTED_EDGE ( 'NONE', *, *, #225, .F. ) ;
#8 = DIRECTION ( 'NONE',  ( -0.0000000000000000000, -0.0000000000000000000, -1.000000000000000000 ) ) ;
#9 = DIRECTION ( 'NONE',  ( 0.0000000000000000000, 1.000000000000000000, 0.0000000000000000000 ) ) ;
#10 = ADVANCED_FACE ( 'NONE', ( #21 ), #3, .T. ) ;
#11 = EDGE_LOOP ( 'NONE', ( #184, #127, #7, #208 ) ) ;
#12 = APPROVAL ( #237, 'UNSPECIFIED' ) ;
#13 = PLANE ( 'NONE',  #95 ) ;
#14 = APPROVAL_DATE_TIME ( #30, #108 ) ;
#15 = DIRECTION ( 'NONE',  ( 0.0000000000000000000, -1.000000000000000000, 0.0000000000000000000 ) ) ;
#16 = DATE_AND_TIME ( #118, #6 ) ;
#17 = ORIENTED_EDGE ( 'NONE', *, *, #114, .T. ) ;
#18 = DIRECTION ( 'NONE',  ( 1.000000000000000000, 0.0000000000000000000, 0.0000000000000000000 ) ) ;
#19 = APPLICATION_CONTEXT ( 'configuration controlled 3d designs of mechanical parts and assemblies' ) ;
#20 = CC_DESIGN_PERSON_AND_ORGANIZATION_ASSIGNMENT ( #128, #39, ( #2 ) ) ;
#21 = FACE_OUTER_BOUND ( 'NONE', #168, .T. ) ;
#22 = APPROVAL_PERSON_ORGANIZATION ( #154, #222, #188 ) ;
#23 = VERTEX_POINT ( 'NONE', #220 ) ;
#24 = CARTESIAN_POINT ( 'NONE',  ( -60.00000000000002132, 9.999999999999998224, 0.9499999999999999556 ) ) ;
#25 = EDGE_CURVE ( 'NONE', #224, #23, #173, .T. ) ;
#26 = EDGE_LOOP ( 'NONE', ( #101, #143, #117, #72 ) ) ;
#27 = DIRECTION ( 'NONE',  ( 1.000000000000000000, 0.0000000000000000000, 0.0000000000000000000 ) ) ;
#28 = LINE ( 'NONE', #140, #116 ) ;
#29 = DIRECTION ( 'NONE',  ( 0.0000000000000000000, 1.000000000000000000, 0.0000000000000000000 ) ) ;
#30 = DATE_AND_TIME ( #67, #92 ) ;
#31 = CC_DESIGN_SECURITY_CLASSIFICATION ( #2, ( #79 ) ) ;
#32 = CARTESIAN_POINT ( 'NONE',  ( -60.00000000000002132, 9.999999999999998224, 0.0000000000000000000 ) ) ;
#33 = EDGE_CURVE ( 'NONE', #206, #109, #28, .T. ) ;
#34 = CARTESIAN_POINT ( 'NONE',  ( -60.00000000000002132, 9.999999999999998224, 0.9499999999999999556 ) ) ;
#35 = PERSON_AND_ORGANIZATION ( #212, #223 ) ;
#36 = CARTESIAN_POINT ( 'NONE',  ( -60.00000000000002132, -10.00000000000000178, 0.9499999999999999556 ) ) ;
#37 = DIRECTION ( 'NONE',  ( -0.0000000000000000000, -0.0000000000000000000, -1.000000000000000000 ) ) ;
#38 = CARTESIAN_POINT ( 'NONE',  ( 59.99999999999999289, -10.00000000000000178, 0.9499999999999999556 ) ) ;
#39 = PERSON_AND_ORGANIZATION_ROLE ( 'classification_officer' ) ;
#40 = FACE_OUTER_BOUND ( 'NONE', #153, .T. ) ;
#41 = EDGE_CURVE ( 'NONE', #187, #206, #226, .T. ) ;
#42 = CARTESIAN_POINT ( 'NONE',  ( 59.99999999999999289, -10.00000000000000178, 0.9499999999999999556 ) ) ;
#43 = ORIENTED_EDGE ( 'NONE', *, *, #135, .F. ) ;
#44 = DATE_AND_TIME ( #106, #221 ) ;
#45 = LINE ( 'NONE', #200, #192 ) ;
#46 = PRODUCT_RELATED_PRODUCT_CATEGORY ( 'detail', '', ( #155 ) ) ;
#47 = VECTOR ( 'NONE', #85, 1000.000000000000000 ) ;
#48 = CC_DESIGN_APPROVAL ( #222, ( #79 ) ) ;
#49 = CALENDAR_DATE ( 2021, 11, 3 ) ;
#50 = ADVANCED_FACE ( 'NONE', ( #66 ), #179, .F. ) ;
#51 = CARTESIAN_POINT ( 'NONE',  ( -60.00000000000002132, -10.00000000000000178, 0.9499999999999999556 ) ) ;
#52 = LINE ( 'NONE', #84, #214 ) ;
#53 = ORIENTED_EDGE ( 'NONE', *, *, #148, .F. ) ;
#54 = PRODUCT_DEFINITION ( 'UNKNOWN', '', #79, #195 ) ;
#55 = COORDINATED_UNIVERSAL_TIME_OFFSET ( 5, 0, .BEHIND. ) ;
#56 = LOCAL_TIME ( 15, 26, 47.00000000000000000, #100 ) ;
#57 =( NAMED_UNIT ( * ) PLANE_ANGLE_UNIT ( ) SI_UNIT ( $, .RADIAN. ) );
#58 = CARTESIAN_POINT ( 'NONE',  ( 0.0000000000000000000, 0.0000000000000000000, 0.9499999999999999556 ) ) ;
#59 = CARTESIAN_POINT ( 'NONE',  ( -60.00000000000002132, -10.00000000000000178, 0.0000000000000000000 ) ) ;
#60 = AXIS2_PLACEMENT_3D ( 'NONE', #196, #102, #197 ) ;
#61 = CC_DESIGN_DATE_AND_TIME_ASSIGNMENT ( #44, #115, ( #2 ) ) ;
#62 = COORDINATED_UNIVERSAL_TIME_OFFSET ( 5, 0, .BEHIND. ) ;
#63 = ORIENTED_EDGE ( 'NONE', *, *, #114, .F. ) ;
#64 = APPLICATION_CONTEXT ( 'configuration controlled 3d designs of mechanical parts and assemblies' ) ;
#65 = EDGE_CURVE ( 'NONE', #5, #210, #52, .T. ) ;
#66 = FACE_OUTER_BOUND ( 'NONE', #171, .T. ) ;
#67 = CALENDAR_DATE ( 2021, 11, 3 ) ;
#68 = VERTEX_POINT ( 'NONE', #178 ) ;
#69 = ADVANCED_FACE ( 'NONE', ( #40 ), #138, .F. ) ;
#70 = CARTESIAN_POINT ( 'NONE',  ( -60.00000000000002132, 9.999999999999998224, 0.0000000000000000000 ) ) ;
#71 = DIRECTION ( 'NONE',  ( 0.0000000000000000000, -0.0000000000000000000, 1.000000000000000000 ) ) ;
#72 = ORIENTED_EDGE ( 'NONE', *, *, #41, .T. ) ;
#73 = LOCAL_TIME ( 15, 26, 47.00000000000000000, #176 ) ;
#74 = DIRECTION ( 'NONE',  ( -0.0000000000000000000, -1.000000000000000000, -0.0000000000000000000 ) ) ;
#75 =( LENGTH_UNIT ( ) NAMED_UNIT ( * ) SI_UNIT ( .MILLI., .METRE. ) );
#76 = PERSON_AND_ORGANIZATION_ROLE ( 'creator' ) ;
#77 = EDGE_CURVE ( 'NONE', #206, #23, #203, .T. ) ;
#78 = DIRECTION ( 'NONE',  ( -1.000000000000000000, -0.0000000000000000000, -0.0000000000000000000 ) ) ;
#79 = PRODUCT_DEFINITION_FORMATION_WITH_SPECIFIED_SOURCE ( 'ANY', '', #155, .NOT_KNOWN. ) ;
#80 = CLOSED_SHELL ( 'NONE', ( #211, #175, #69, #50, #180, #10 ) ) ;
#81 = DIRECTION ( 'NONE',  ( -0.0000000000000000000, -1.000000000000000000, -0.0000000000000000000 ) ) ;
#82 = PERSON_AND_ORGANIZATION ( #212, #223 ) ;
#83 = PERSON_AND_ORGANIZATION ( #212, #223 ) ;
#84 = CARTESIAN_POINT ( 'NONE',  ( -60.00000000000002132, 9.999999999999998224, 0.9499999999999999556 ) ) ;
#85 = DIRECTION ( 'NONE',  ( -0.0000000000000000000, -0.0000000000000000000, -1.000000000000000000 ) ) ;
#86 = APPROVAL_DATE_TIME ( #185, #222 ) ;
#87 = CC_DESIGN_APPROVAL ( #12, ( #54 ) ) ;
#88 = APPROVAL_DATE_TIME ( #139, #12 ) ;
#89 = DIRECTION ( 'NONE',  ( 0.0000000000000000000, 0.0000000000000000000, -1.000000000000000000 ) ) ;
#90 = APPLICATION_PROTOCOL_DEFINITION ( 'international standard', 'config_control_design', 1994, #64 ) ;
#91 = VECTOR ( 'NONE', #27, 1000.000000000000000 ) ;
#92 = LOCAL_TIME ( 15, 26, 47.00000000000000000, #235 ) ;
#93 = AXIS2_PLACEMENT_3D ( 'NONE', #58, #89, #113 ) ;
#94 = ORIENTED_EDGE ( 'NONE', *, *, #217, .F. ) ;
#95 = AXIS2_PLACEMENT_3D ( 'NONE', #34, #15, #141 ) ;
#96 = EDGE_CURVE ( 'NONE', #68, #210, #157, .T. ) ;
#97 = FACE_OUTER_BOUND ( 'NONE', #11, .T. ) ;
#98 = ORIENTED_EDGE ( 'NONE', *, *, #65, .T. ) ;
#99 = MANIFOLD_SOLID_BREP ( 'Boss-Extrude1', #80 ) ;
#100 = COORDINATED_UNIVERSAL_TIME_OFFSET ( 5, 0, .BEHIND. ) ;
#101 = ORIENTED_EDGE ( 'NONE', *, *, #33, .T. ) ;
#102 = DIRECTION ( 'NONE',  ( 1.000000000000000000, 0.0000000000000000000, 0.0000000000000000000 ) ) ;
#103 = AXIS2_PLACEMENT_3D ( 'NONE', #193, #156, #71 ) ;
#104 = VECTOR ( 'NONE', #134, 1000.000000000000000 ) ;
#105 = CARTESIAN_POINT ( 'NONE',  ( -60.00000000000002132, -10.00000000000000178, 0.9499999999999999556 ) ) ;
#106 = CALENDAR_DATE ( 2021, 11, 3 ) ;
#107 = PERSON_AND_ORGANIZATION ( #212, #223 ) ;
#108 = APPROVAL ( #165, 'UNSPECIFIED' ) ;
#109 = VERTEX_POINT ( 'NONE', #227 ) ;
#110 = PLANE ( 'NONE',  #233 ) ;
#111 = PERSON_AND_ORGANIZATION_ROLE ( 'design_owner' ) ;
#112 = CC_DESIGN_PERSON_AND_ORGANIZATION_ASSIGNMENT ( #83, #111, ( #155 ) ) ;
#113 = DIRECTION ( 'NONE',  ( -1.000000000000000000, 0.0000000000000000000, -0.0000000000000000000 ) ) ;
#114 = EDGE_CURVE ( 'NONE', #187, #224, #119, .T. ) ;
#115 = DATE_TIME_ROLE ( 'classification_date' ) ;
#116 = VECTOR ( 'NONE', #29, 1000.000000000000000 ) ;
#117 = ORIENTED_EDGE ( 'NONE', *, *, #135, .T. ) ;
#118 = CALENDAR_DATE ( 2021, 11, 3 ) ;
#119 = LINE ( 'NONE', #36, #170 ) ;
#120 = FACE_OUTER_BOUND ( 'NONE', #151, .T. ) ;
#121 = ORIENTED_EDGE ( 'NONE', *, *, #25, .F. ) ;
#122 = PRODUCT_DEFINITION_SHAPE ( 'NONE', 'NONE',  #54 ) ;
#123 =( GEOMETRIC_REPRESENTATION_CONTEXT ( 3 ) GLOBAL_UNCERTAINTY_ASSIGNED_CONTEXT ( ( #231 ) ) GLOBAL_UNIT_ASSIGNED_CONTEXT ( ( #75, #57, #202 ) ) REPRESENTATION_CONTEXT ( 'NONE', 'WORKASPACE' ) );
#124 = CARTESIAN_POINT ( 'NONE',  ( 59.99999999999999289, -10.00000000000000178, 0.0000000000000000000 ) ) ;
#125 = CARTESIAN_POINT ( 'NONE',  ( -60.00000000000002132, 9.999999999999998224, 0.9499999999999999556 ) ) ;
#126 = VECTOR ( 'NONE', #74, 1000.000000000000000 ) ;
#127 = ORIENTED_EDGE ( 'NONE', *, *, #65, .F. ) ;
#128 = PERSON_AND_ORGANIZATION ( #212, #223 ) ;
#129 = PLANE ( 'NONE',  #93 ) ;
#130 = APPROVAL_STATUS ( 'not_yet_approved' ) ;
#131 = AXIS2_PLACEMENT_3D ( 'NONE', #136, #174, #209 ) ;
#132 = LINE ( 'NONE', #105, #126 ) ;
#133 = APPROVAL_PERSON_ORGANIZATION ( #35, #12, #166 ) ;
#134 = DIRECTION ( 'NONE',  ( 1.000000000000000000, 0.0000000000000000000, 0.0000000000000000000 ) ) ;
#135 = EDGE_CURVE ( 'NONE', #5, #187, #132, .T. ) ;
#136 = CARTESIAN_POINT ( 'NONE',  ( 0.0000000000000000000, 0.0000000000000000000, 0.0000000000000000000 ) ) ;
#137 = ADVANCED_BREP_SHAPE_REPRESENTATION ( 'Web Model Lightsmyth Gratings_16871', ( #99, #207 ), #123 ) ;
#138 = PLANE ( 'NONE',  #60 ) ;
#139 = DATE_AND_TIME ( #49, #73 ) ;
#140 = CARTESIAN_POINT ( 'NONE',  ( 59.99999999999999289, -10.00000000000000178, 0.9499999999999999556 ) ) ;
#141 = DIRECTION ( 'NONE',  ( 0.0000000000000000000, -0.0000000000000000000, -1.000000000000000000 ) ) ;
#142 = DIRECTION ( 'NONE',  ( -1.000000000000000000, -0.0000000000000000000, -0.0000000000000000000 ) ) ;
#143 = ORIENTED_EDGE ( 'NONE', *, *, #225, .T. ) ;
#144 = PERSON_AND_ORGANIZATION_ROLE ( 'creator' ) ;
#145 = ORIENTED_EDGE ( 'NONE', *, *, #217, .T. ) ;
#146 = PERSON_AND_ORGANIZATION_ROLE ( 'design_supplier' ) ;
#147 = CC_DESIGN_APPROVAL ( #108, ( #2 ) ) ;
#148 = EDGE_CURVE ( 'NONE', #23, #68, #4, .T. ) ;
#149 = ORIENTED_EDGE ( 'NONE', *, *, #33, .F. ) ;
#150 = PERSON_AND_ORGANIZATION ( #212, #223 ) ;
#151 = EDGE_LOOP ( 'NONE', ( #177, #198, #149, #159 ) ) ;
#152 = DIRECTION ( 'NONE',  ( 0.0000000000000000000, 0.0000000000000000000, 1.000000000000000000 ) ) ;
#153 = EDGE_LOOP ( 'NONE', ( #145, #63, #43, #98 ) ) ;
#154 = PERSON_AND_ORGANIZATION ( #212, #223 ) ;
#155 = PRODUCT ( 'Web Model Lightsmyth Gratings_16871', 'Web Model Lightsmyth Gratings_16871', '', ( #189 ) ) ;
#156 = DIRECTION ( 'NONE',  ( 0.0000000000000000000, 1.000000000000000000, 0.0000000000000000000 ) ) ;
#157 = LINE ( 'NONE', #70, #181 ) ;
#158 = CARTESIAN_POINT ( 'NONE',  ( 59.99999999999999289, 9.999999999999998224, 0.9499999999999999556 ) ) ;
#159 = ORIENTED_EDGE ( 'NONE', *, *, #77, .T. ) ;
#160 = EDGE_CURVE ( 'NONE', #109, #68, #219, .T. ) ;
#161 = CC_DESIGN_PERSON_AND_ORGANIZATION_ASSIGNMENT ( #150, #146, ( #79 ) ) ;
#162 = CARTESIAN_POINT ( 'NONE',  ( -60.00000000000002132, -10.00000000000000178, 0.9499999999999999556 ) ) ;
#163 = PERSON_AND_ORGANIZATION ( #212, #223 ) ;
#164 = ORIENTED_EDGE ( 'NONE', *, *, #41, .F. ) ;
#165 = APPROVAL_STATUS ( 'not_yet_approved' ) ;
#166 = APPROVAL_ROLE ( '' ) ;
#167 = VECTOR ( 'NONE', #9, 1000.000000000000000 ) ;
#168 = EDGE_LOOP ( 'NONE', ( #53, #121, #94, #194 ) ) ;
#169 = CC_DESIGN_PERSON_AND_ORGANIZATION_ASSIGNMENT ( #107, #144, ( #79 ) ) ;
#170 = VECTOR ( 'NONE', #37, 1000.000000000000000 ) ;
#171 = EDGE_LOOP ( 'NONE', ( #234, #199, #164, #17 ) ) ;
#172 = DIRECTION ( 'NONE',  ( -1.000000000000000000, 0.0000000000000000000, 0.0000000000000000000 ) ) ;
#173 = LINE ( 'NONE', #1, #104 ) ;
#174 = DIRECTION ( 'NONE',  ( 0.0000000000000000000, 0.0000000000000000000, -1.000000000000000000 ) ) ;
#175 = ADVANCED_FACE ( 'NONE', ( #97 ), #13, .F. ) ;
#176 = COORDINATED_UNIVERSAL_TIME_OFFSET ( 5, 0, .BEHIND. ) ;
#177 = ORIENTED_EDGE ( 'NONE', *, *, #148, .T. ) ;
#178 = CARTESIAN_POINT ( 'NONE',  ( 59.99999999999999289, 9.999999999999998224, 0.0000000000000000000 ) ) ;
#179 = PLANE ( 'NONE',  #103 ) ;
#180 = ADVANCED_FACE ( 'NONE', ( #232 ), #129, .F. ) ;
#181 = VECTOR ( 'NONE', #142, 1000.000000000000000 ) ;
#182 = DIRECTION ( 'NONE',  ( -0.0000000000000000000, -0.0000000000000000000, -1.000000000000000000 ) ) ;
#183 = VECTOR ( 'NONE', #78, 1000.000000000000000 ) ;
#184 = ORIENTED_EDGE ( 'NONE', *, *, #96, .T. ) ;
#185 = DATE_AND_TIME ( #236, #56 ) ;
#186 = CARTESIAN_POINT ( 'NONE',  ( 0.0000000000000000000, 0.0000000000000000000, 0.0000000000000000000 ) ) ;
#187 = VERTEX_POINT ( 'NONE', #162 ) ;
#188 = APPROVAL_ROLE ( '' ) ;
#189 = MECHANICAL_CONTEXT ( 'NONE', #64, 'mechanical' ) ;
#190 = SECURITY_CLASSIFICATION_LEVEL ( 'unclassified' ) ;
#191 = VECTOR ( 'NONE', #182, 1000.000000000000000 ) ;
#192 = VECTOR ( 'NONE', #81, 1000.000000000000000 ) ;
#193 = CARTESIAN_POINT ( 'NONE',  ( -60.00000000000002132, -10.00000000000000178, 0.9499999999999999556 ) ) ;
#194 = ORIENTED_EDGE ( 'NONE', *, *, #96, .F. ) ;
#195 = DESIGN_CONTEXT ( 'detailed design', #19, 'design' ) ;
#196 = CARTESIAN_POINT ( 'NONE',  ( -60.00000000000002132, -10.00000000000000178, 0.9499999999999999556 ) ) ;
#197 = DIRECTION ( 'NONE',  ( 0.0000000000000000000, 0.0000000000000000000, -1.000000000000000000 ) ) ;
#198 = ORIENTED_EDGE ( 'NONE', *, *, #160, .F. ) ;
#199 = ORIENTED_EDGE ( 'NONE', *, *, #77, .F. ) ;
#200 = CARTESIAN_POINT ( 'NONE',  ( -60.00000000000002132, -10.00000000000000178, 0.0000000000000000000 ) ) ;
#201 = DATE_TIME_ROLE ( 'creation_date' ) ;
#202 =( NAMED_UNIT ( * ) SI_UNIT ( $, .STERADIAN. ) SOLID_ANGLE_UNIT ( ) );
#203 = LINE ( 'NONE', #213, #47 ) ;
#204 = CC_DESIGN_DATE_AND_TIME_ASSIGNMENT ( #16, #201, ( #54 ) ) ;
#205 = APPROVAL_PERSON_ORGANIZATION ( #82, #108, #230 ) ;
#206 = VERTEX_POINT ( 'NONE', #42 ) ;
#207 = AXIS2_PLACEMENT_3D ( 'NONE', #186, #228, #18 ) ;
#208 = ORIENTED_EDGE ( 'NONE', *, *, #160, .T. ) ;
#209 = DIRECTION ( 'NONE',  ( -1.000000000000000000, 0.0000000000000000000, -0.0000000000000000000 ) ) ;
#210 = VERTEX_POINT ( 'NONE', #32 ) ;
#211 = ADVANCED_FACE ( 'NONE', ( #120 ), #110, .F. ) ;
#212 = PERSON ( 'UNSPECIFIED', 'UNSPECIFIED', 'UNSPECIFIED', ('UNSPECIFIED'), ('UNSPECIFIED'), ('UNSPECIFIED') ) ;
#213 = CARTESIAN_POINT ( 'NONE',  ( 59.99999999999999289, -10.00000000000000178, 0.9499999999999999556 ) ) ;
#214 = VECTOR ( 'NONE', #8, 1000.000000000000000 ) ;
#215 = LINE ( 'NONE', #125, #183 ) ;
#216 = CC_DESIGN_PERSON_AND_ORGANIZATION_ASSIGNMENT ( #163, #76, ( #54 ) ) ;
#217 = EDGE_CURVE ( 'NONE', #210, #224, #45, .T. ) ;
#218 = SHAPE_DEFINITION_REPRESENTATION ( #122, #137 ) ;
#219 = LINE ( 'NONE', #158, #191 ) ;
#220 = CARTESIAN_POINT ( 'NONE',  ( 59.99999999999999289, -10.00000000000000178, 0.0000000000000000000 ) ) ;
#221 = LOCAL_TIME ( 15, 26, 47.00000000000000000, #55 ) ;
#222 = APPROVAL ( #130, 'UNSPECIFIED' ) ;
#223 = ORGANIZATION ( 'UNSPECIFIED', 'UNSPECIFIED', '' ) ;
#224 = VERTEX_POINT ( 'NONE', #59 ) ;
#225 = EDGE_CURVE ( 'NONE', #109, #5, #215, .T. ) ;
#226 = LINE ( 'NONE', #51, #91 ) ;
#227 = CARTESIAN_POINT ( 'NONE',  ( 59.99999999999999289, 9.999999999999998224, 0.9499999999999999556 ) ) ;
#228 = DIRECTION ( 'NONE',  ( 0.0000000000000000000, 0.0000000000000000000, 1.000000000000000000 ) ) ;
#229 = APPLICATION_PROTOCOL_DEFINITION ( 'international standard', 'config_control_design', 1994, #19 ) ;
#230 = APPROVAL_ROLE ( '' ) ;
#231 = UNCERTAINTY_MEASURE_WITH_UNIT (LENGTH_MEASURE( 1.000000000000000082E-05 ), #75, 'distance_accuracy_value', 'NONE');
#232 = FACE_OUTER_BOUND ( 'NONE', #26, .T. ) ;
#233 = AXIS2_PLACEMENT_3D ( 'NONE', #38, #172, #152 ) ;
#234 = ORIENTED_EDGE ( 'NONE', *, *, #25, .T. ) ;
#235 = COORDINATED_UNIVERSAL_TIME_OFFSET ( 5, 0, .BEHIND. ) ;
#236 = CALENDAR_DATE ( 2021, 11, 3 ) ;
#237 = APPROVAL_STATUS ( 'not_yet_approved' ) ;
ENDSEC;
END-ISO-10303-21;
