ISO-10303-21;
HEADER;
FILE_DESCRIPTION (( 'STEP AP203' ),
    '1' );
FILE_NAME ('Web Model 39238_39258.step',
    '2018-07-25T17:13:29',
    ( '' ),
    ( '' ),
    'SwSTEP 2.0',
    'SolidWorks 2016',
    '' );
FILE_SCHEMA (( 'CONFIG_CONTROL_DESIGN' ));
ENDSEC;

DATA;
#1 = DIRECTION ( 'NONE',  ( 0.0000000000000000000, 0.0000000000000000000, 1.000000000000000000 ) ) ;
#2 = PERSON_AND_ORGANIZATION ( #52, #147 ) ;
#3 = VERTEX_POINT ( 'NONE', #47 ) ;
#4 = FACE_OUTER_BOUND ( 'NONE', #130, .T. ) ;
#5 = AXIS2_PLACEMENT_3D ( 'NONE', #161, #93, #77 ) ;
#6 = UNCERTAINTY_MEASURE_WITH_UNIT (LENGTH_MEASURE( 1.000000000000000100E-005 ), #31, 'distance_accuracy_value', 'NONE');
#7 = COORDINATED_UNIVERSAL_TIME_OFFSET ( 5, 0, .BEHIND. ) ;
#8 = COORDINATED_UNIVERSAL_TIME_OFFSET ( 5, 0, .BEHIND. ) ;
#9 = CC_DESIGN_DATE_AND_TIME_ASSIGNMENT ( #170, #122, ( #19 ) ) ;
#10 = CARTESIAN_POINT ( 'NONE',  ( 17.50000000000000400, 2.143131898507868600E-015, 0.5000000000000000000 ) ) ;
#11 = LINE ( 'NONE', #10, #113 ) ;
#12 = CARTESIAN_POINT ( 'NONE',  ( 17.50000000000000400, 2.143131898507868600E-015, 0.5000000000000000000 ) ) ;
#13 = DIRECTION ( 'NONE',  ( 1.000000000000000000, 0.0000000000000000000, 0.0000000000000000000 ) ) ;
#14 = DIRECTION ( 'NONE',  ( 0.0000000000000000000, 0.0000000000000000000, 1.000000000000000000 ) ) ;
#15 = CYLINDRICAL_SURFACE ( 'NONE', #80, 17.50000000000000400 ) ;
#16 = CARTESIAN_POINT ( 'NONE',  ( 0.0000000000000000000, 0.0000000000000000000, 0.5000000000000000000 ) ) ;
#17 = DIRECTION ( 'NONE',  ( -0.0000000000000000000, -0.0000000000000000000, -1.000000000000000000 ) ) ;
#18 = EDGE_LOOP ( 'NONE', ( #26, #132 ) ) ;
#19 = SECURITY_CLASSIFICATION ( '', '', #65 ) ;
#20 = CALENDAR_DATE ( 2018, 25, 7 ) ;
#21 = VERTEX_POINT ( 'NONE', #30 ) ;
#22 = PRODUCT_DEFINITION_SHAPE ( 'NONE', 'NONE',  #145 ) ;
#23 = EDGE_CURVE ( 'NONE', #148, #3, #11, .T. ) ;
#24 = ORIENTED_EDGE ( 'NONE', *, *, #154, .T. ) ;
#25 = LOCAL_TIME ( 13, 13, 29.00000000000000000, #135 ) ;
#26 = ORIENTED_EDGE ( 'NONE', *, *, #32, .T. ) ;
#27 = DIRECTION ( 'NONE',  ( 1.000000000000000000, 0.0000000000000000000, 0.0000000000000000000 ) ) ;
#28 = APPLICATION_PROTOCOL_DEFINITION ( 'international standard', 'config_control_design', 1994, #149 ) ;
#29 = PLANE ( 'NONE',  #86 ) ;
#30 = CARTESIAN_POINT ( 'NONE',  ( -17.50000000000000400, 0.0000000000000000000, 0.5000000000000000000 ) ) ;
#31 =( LENGTH_UNIT ( ) NAMED_UNIT ( * ) SI_UNIT ( .MILLI., .METRE. ) );
#32 = EDGE_CURVE ( 'NONE', #21, #148, #126, .T. ) ;
#33 = ORIENTED_EDGE ( 'NONE', *, *, #72, .F. ) ;
#34 = ORIENTED_EDGE ( 'NONE', *, *, #168, .T. ) ;
#35 = MANIFOLD_SOLID_BREP ( 'Boss-Extrude1', #95 ) ;
#36 = CALENDAR_DATE ( 2018, 25, 7 ) ;
#37 = CIRCLE ( 'NONE', #109, 17.50000000000000400 ) ;
#38 = PERSON_AND_ORGANIZATION ( #52, #147 ) ;
#39 = CC_DESIGN_PERSON_AND_ORGANIZATION_ASSIGNMENT ( #38, #141, ( #131 ) ) ;
#40 = LOCAL_TIME ( 13, 13, 29.00000000000000000, #69 ) ;
#41 = CARTESIAN_POINT ( 'NONE',  ( 0.0000000000000000000, 0.0000000000000000000, -0.5000000000000000000 ) ) ;
#42 =( NAMED_UNIT ( * ) PLANE_ANGLE_UNIT ( ) SI_UNIT ( $, .RADIAN. ) );
#43 = APPROVAL_ROLE ( '' ) ;
#44 = CIRCLE ( 'NONE', #111, 17.50000000000000400 ) ;
#45 = AXIS2_PLACEMENT_3D ( 'NONE', #16, #88, #13 ) ;
#46 = CC_DESIGN_APPROVAL ( #112, ( #19 ) ) ;
#47 = CARTESIAN_POINT ( 'NONE',  ( 17.50000000000000400, 2.143131898507868600E-015, -0.5000000000000000000 ) ) ;
#48 = DIRECTION ( 'NONE',  ( 1.000000000000000000, 0.0000000000000000000, 0.0000000000000000000 ) ) ;
#49 = CARTESIAN_POINT ( 'NONE',  ( 0.0000000000000000000, 0.0000000000000000000, -0.5000000000000000000 ) ) ;
#50 = CC_DESIGN_APPROVAL ( #173, ( #145 ) ) ;
#51 = DIRECTION ( 'NONE',  ( 0.0000000000000000000, 0.0000000000000000000, 1.000000000000000000 ) ) ;
#52 = PERSON ( 'UNSPECIFIED', 'UNSPECIFIED', 'UNSPECIFIED', ('UNSPECIFIED'), ('UNSPECIFIED'), ('UNSPECIFIED') ) ;
#53 = APPROVAL_PERSON_ORGANIZATION ( #150, #112, #43 ) ;
#54 = PERSON_AND_ORGANIZATION ( #52, #147 ) ;
#55 = CC_DESIGN_SECURITY_CLASSIFICATION ( #19, ( #131 ) ) ;
#56 = DATE_AND_TIME ( #116, #120 ) ;
#57 = ORIENTED_EDGE ( 'NONE', *, *, #32, .F. ) ;
#58 = APPROVAL ( #78, 'UNSPECIFIED' ) ;
#59 = FACE_OUTER_BOUND ( 'NONE', #18, .T. ) ;
#60 = APPLICATION_PROTOCOL_DEFINITION ( 'international standard', 'config_control_design', 1994, #62 ) ;
#61 = DIRECTION ( 'NONE',  ( 1.000000000000000000, 0.0000000000000000000, 0.0000000000000000000 ) ) ;
#62 = APPLICATION_CONTEXT ( 'configuration controlled 3d designs of mechanical parts and assemblies' ) ;
#63 = PERSON_AND_ORGANIZATION_ROLE ( 'creator' ) ;
#64 = APPROVAL_DATE_TIME ( #85, #58 ) ;
#65 = SECURITY_CLASSIFICATION_LEVEL ( 'unclassified' ) ;
#66 = LINE ( 'NONE', #103, #140 ) ;
#67 = PERSON_AND_ORGANIZATION ( #52, #147 ) ;
#68 = ADVANCED_FACE ( 'NONE', ( #59 ), #118, .T. ) ;
#69 = COORDINATED_UNIVERSAL_TIME_OFFSET ( 5, 0, .BEHIND. ) ;
#70 = EDGE_LOOP ( 'NONE', ( #84, #57, #24, #117 ) ) ;
#71 = ADVANCED_FACE ( 'NONE', ( #4 ), #15, .T. ) ;
#72 = EDGE_CURVE ( 'NONE', #121, #3, #44, .T. ) ;
#73 = ORIENTED_EDGE ( 'NONE', *, *, #154, .F. ) ;
#74 = CARTESIAN_POINT ( 'NONE',  ( 0.0000000000000000000, 0.0000000000000000000, -0.5000000000000000000 ) ) ;
#75 = MECHANICAL_CONTEXT ( 'NONE', #62, 'mechanical' ) ;
#76 = FACE_OUTER_BOUND ( 'NONE', #166, .T. ) ;
#77 = DIRECTION ( 'NONE',  ( 1.000000000000000000, 0.0000000000000000000, 0.0000000000000000000 ) ) ;
#78 = APPROVAL_STATUS ( 'not_yet_approved' ) ;
#79 = APPROVAL_ROLE ( '' ) ;
#80 = AXIS2_PLACEMENT_3D ( 'NONE', #146, #119, #106 ) ;
#81 = CIRCLE ( 'NONE', #45, 17.50000000000000400 ) ;
#82 = PRODUCT ( 'Web Model 39238_39258', 'Web Model 39238_39258', '', ( #75 ) ) ;
#83 = EDGE_CURVE ( 'NONE', #148, #21, #81, .T. ) ;
#84 = ORIENTED_EDGE ( 'NONE', *, *, #23, .F. ) ;
#85 = DATE_AND_TIME ( #123, #25 ) ;
#86 = AXIS2_PLACEMENT_3D ( 'NONE', #74, #90, #136 ) ;
#87 = CARTESIAN_POINT ( 'NONE',  ( 0.0000000000000000000, 0.0000000000000000000, 0.5000000000000000000 ) ) ;
#88 = DIRECTION ( 'NONE',  ( 0.0000000000000000000, 0.0000000000000000000, 1.000000000000000000 ) ) ;
#89 = PERSON_AND_ORGANIZATION ( #52, #147 ) ;
#90 = DIRECTION ( 'NONE',  ( 0.0000000000000000000, 0.0000000000000000000, 1.000000000000000000 ) ) ;
#91 = APPROVAL_STATUS ( 'not_yet_approved' ) ;
#92 = AXIS2_PLACEMENT_3D ( 'NONE', #87, #175, #27 ) ;
#93 = DIRECTION ( 'NONE',  ( 0.0000000000000000000, 0.0000000000000000000, 1.000000000000000000 ) ) ;
#94 = SHAPE_DEFINITION_REPRESENTATION ( #22, #125 ) ;
#95 = CLOSED_SHELL ( 'NONE', ( #71, #127, #68, #169 ) ) ;
#96 = CALENDAR_DATE ( 2018, 25, 7 ) ;
#97 = AXIS2_PLACEMENT_3D ( 'NONE', #134, #51, #133 ) ;
#98 = ORIENTED_EDGE ( 'NONE', *, *, #83, .F. ) ;
#99 = CC_DESIGN_APPROVAL ( #58, ( #131 ) ) ;
#100 = LOCAL_TIME ( 13, 13, 29.00000000000000000, #142 ) ;
#101 = APPROVAL_DATE_TIME ( #56, #112 ) ;
#102 = DATE_AND_TIME ( #20, #40 ) ;
#103 = CARTESIAN_POINT ( 'NONE',  ( -17.50000000000000400, 0.0000000000000000000, 0.5000000000000000000 ) ) ;
#104 = PERSON_AND_ORGANIZATION_ROLE ( 'design_owner' ) ;
#105 = CC_DESIGN_PERSON_AND_ORGANIZATION_ASSIGNMENT ( #129, #104, ( #82 ) ) ;
#106 = DIRECTION ( 'NONE',  ( -1.000000000000000000, 0.0000000000000000000, 0.0000000000000000000 ) ) ;
#107 = APPROVAL_DATE_TIME ( #151, #173 ) ;
#108 =( NAMED_UNIT ( * ) SI_UNIT ( $, .STERADIAN. ) SOLID_ANGLE_UNIT ( ) );
#109 = AXIS2_PLACEMENT_3D ( 'NONE', #49, #14, #48 ) ;
#110 = APPROVAL_PERSON_ORGANIZATION ( #167, #173, #138 ) ;
#111 = AXIS2_PLACEMENT_3D ( 'NONE', #41, #1, #61 ) ;
#112 = APPROVAL ( #139, 'UNSPECIFIED' ) ;
#113 = VECTOR ( 'NONE', #157, 1000.000000000000000 ) ;
#114 = FACE_OUTER_BOUND ( 'NONE', #70, .T. ) ;
#115 = PRODUCT_RELATED_PRODUCT_CATEGORY ( 'detail', '', ( #82 ) ) ;
#116 = CALENDAR_DATE ( 2018, 25, 7 ) ;
#117 = ORIENTED_EDGE ( 'NONE', *, *, #72, .T. ) ;
#118 = PLANE ( 'NONE',  #97 ) ;
#119 = DIRECTION ( 'NONE',  ( -0.0000000000000000000, -0.0000000000000000000, -1.000000000000000000 ) ) ;
#120 = LOCAL_TIME ( 13, 13, 29.00000000000000000, #7 ) ;
#121 = VERTEX_POINT ( 'NONE', #160 ) ;
#122 = DATE_TIME_ROLE ( 'classification_date' ) ;
#123 = CALENDAR_DATE ( 2018, 25, 7 ) ;
#124 = CC_DESIGN_PERSON_AND_ORGANIZATION_ASSIGNMENT ( #89, #63, ( #145 ) ) ;
#125 = ADVANCED_BREP_SHAPE_REPRESENTATION ( 'Web Model 39238_39258', ( #35, #5 ), #128 ) ;
#126 = CIRCLE ( 'NONE', #92, 17.50000000000000400 ) ;
#127 = ADVANCED_FACE ( 'NONE', ( #114 ), #165, .T. ) ;
#128 =( GEOMETRIC_REPRESENTATION_CONTEXT ( 3 ) GLOBAL_UNCERTAINTY_ASSIGNED_CONTEXT ( ( #6 ) ) GLOBAL_UNIT_ASSIGNED_CONTEXT ( ( #31, #42, #108 ) ) REPRESENTATION_CONTEXT ( 'NONE', 'WORKASPACE' ) );
#129 = PERSON_AND_ORGANIZATION ( #52, #147 ) ;
#130 = EDGE_LOOP ( 'NONE', ( #98, #155, #34, #73 ) ) ;
#131 = PRODUCT_DEFINITION_FORMATION_WITH_SPECIFIED_SOURCE ( 'ANY', '', #82, .NOT_KNOWN. ) ;
#132 = ORIENTED_EDGE ( 'NONE', *, *, #83, .T. ) ;
#133 = DIRECTION ( 'NONE',  ( 1.000000000000000000, 0.0000000000000000000, -0.0000000000000000000 ) ) ;
#134 = CARTESIAN_POINT ( 'NONE',  ( 0.0000000000000000000, 0.0000000000000000000, 0.5000000000000000000 ) ) ;
#135 = COORDINATED_UNIVERSAL_TIME_OFFSET ( 5, 0, .BEHIND. ) ;
#136 = DIRECTION ( 'NONE',  ( 1.000000000000000000, 0.0000000000000000000, -0.0000000000000000000 ) ) ;
#137 = AXIS2_PLACEMENT_3D ( 'NONE', #159, #171, #158 ) ;
#138 = APPROVAL_ROLE ( '' ) ;
#139 = APPROVAL_STATUS ( 'not_yet_approved' ) ;
#140 = VECTOR ( 'NONE', #17, 1000.000000000000000 ) ;
#141 = PERSON_AND_ORGANIZATION_ROLE ( 'design_supplier' ) ;
#142 = COORDINATED_UNIVERSAL_TIME_OFFSET ( 5, 0, .BEHIND. ) ;
#143 = CC_DESIGN_DATE_AND_TIME_ASSIGNMENT ( #102, #162, ( #145 ) ) ;
#144 = LOCAL_TIME ( 13, 13, 29.00000000000000000, #8 ) ;
#145 = PRODUCT_DEFINITION ( 'UNKNOWN', '', #131, #174 ) ;
#146 = CARTESIAN_POINT ( 'NONE',  ( 0.0000000000000000000, 0.0000000000000000000, 0.5000000000000000000 ) ) ;
#147 = ORGANIZATION ( 'UNSPECIFIED', 'UNSPECIFIED', '' ) ;
#148 = VERTEX_POINT ( 'NONE', #12 ) ;
#149 = APPLICATION_CONTEXT ( 'configuration controlled 3d designs of mechanical parts and assemblies' ) ;
#150 = PERSON_AND_ORGANIZATION ( #52, #147 ) ;
#151 = DATE_AND_TIME ( #96, #144 ) ;
#152 = CC_DESIGN_PERSON_AND_ORGANIZATION_ASSIGNMENT ( #67, #164, ( #131 ) ) ;
#153 = ORIENTED_EDGE ( 'NONE', *, *, #168, .F. ) ;
#154 = EDGE_CURVE ( 'NONE', #21, #121, #66, .T. ) ;
#155 = ORIENTED_EDGE ( 'NONE', *, *, #23, .T. ) ;
#156 = CC_DESIGN_PERSON_AND_ORGANIZATION_ASSIGNMENT ( #2, #163, ( #19 ) ) ;
#157 = DIRECTION ( 'NONE',  ( -0.0000000000000000000, -0.0000000000000000000, -1.000000000000000000 ) ) ;
#158 = DIRECTION ( 'NONE',  ( -1.000000000000000000, 0.0000000000000000000, 0.0000000000000000000 ) ) ;
#159 = CARTESIAN_POINT ( 'NONE',  ( 0.0000000000000000000, 0.0000000000000000000, 0.5000000000000000000 ) ) ;
#160 = CARTESIAN_POINT ( 'NONE',  ( -17.50000000000000400, 0.0000000000000000000, -0.5000000000000000000 ) ) ;
#161 = CARTESIAN_POINT ( 'NONE',  ( 0.0000000000000000000, 0.0000000000000000000, 0.0000000000000000000 ) ) ;
#162 = DATE_TIME_ROLE ( 'creation_date' ) ;
#163 = PERSON_AND_ORGANIZATION_ROLE ( 'classification_officer' ) ;
#164 = PERSON_AND_ORGANIZATION_ROLE ( 'creator' ) ;
#165 = CYLINDRICAL_SURFACE ( 'NONE', #137, 17.50000000000000400 ) ;
#166 = EDGE_LOOP ( 'NONE', ( #33, #153 ) ) ;
#167 = PERSON_AND_ORGANIZATION ( #52, #147 ) ;
#168 = EDGE_CURVE ( 'NONE', #3, #121, #37, .T. ) ;
#169 = ADVANCED_FACE ( 'NONE', ( #76 ), #29, .F. ) ;
#170 = DATE_AND_TIME ( #36, #100 ) ;
#171 = DIRECTION ( 'NONE',  ( -0.0000000000000000000, -0.0000000000000000000, -1.000000000000000000 ) ) ;
#172 = APPROVAL_PERSON_ORGANIZATION ( #54, #58, #79 ) ;
#173 = APPROVAL ( #91, 'UNSPECIFIED' ) ;
#174 = DESIGN_CONTEXT ( 'detailed design', #149, 'design' ) ;
#175 = DIRECTION ( 'NONE',  ( 0.0000000000000000000, 0.0000000000000000000, 1.000000000000000000 ) ) ;
ENDSEC;
END-ISO-10303-21;
