ISO-10303-21;
HEADER;
FILE_DESCRIPTION (( 'STEP AP214' ),
    '1' );
FILE_NAME ('20095.step',
    '2022-07-08T19:02:44',
    ( '' ),
    ( '' ),
    'SwSTEP 2.0',
    'SolidWorks 2021',
    '' );
FILE_SCHEMA (( 'AUTOMOTIVE_DESIGN' ));
ENDSEC;

DATA;
#1 = APPLICATION_PROTOCOL_DEFINITION ( 'draft international standard', 'automotive_design', 1998, #125 ) ;
#2 = DIRECTION ( 'NONE',  ( 1.000000000000000000, 0.000000000000000000, 0.000000000000000000 ) ) ;
#3 = PRODUCT_DEFINITION_SHAPE ( 'NONE', 'NONE',  #256 ) ;
#4 =( NAMED_UNIT ( * ) SI_UNIT ( $, .STERADIAN. ) SOLID_ANGLE_UNIT ( ) );
#5 = CARTESIAN_POINT ( 'NONE',  ( 21.21320343559642652, 0.000000000000000000, 0.000000000000000000 ) ) ;
#6 = SHAPE_REPRESENTATION ( '32545_32545', ( #118 ), #28 ) ;
#7 = PRODUCT_CONTEXT ( 'NONE', #90, 'mechanical' ) ;
#8 = PLANE ( 'NONE',  #231 ) ;
#9 =( NAMED_UNIT ( * ) PLANE_ANGLE_UNIT ( ) SI_UNIT ( $, .RADIAN. ) );
#10 = ORIENTED_EDGE ( 'NONE', *, *, #219, .F. ) ;
#11 = STYLED_ITEM ( 'NONE', ( #253 ), #100 ) ;
#12 =( GEOMETRIC_REPRESENTATION_CONTEXT ( 3 ) GLOBAL_UNCERTAINTY_ASSIGNED_CONTEXT ( ( #246 ) ) GLOBAL_UNIT_ASSIGNED_CONTEXT ( ( #129, #9, #239 ) ) REPRESENTATION_CONTEXT ( 'NONE', 'WORKASPACE' ) );
#13 = ORIENTED_EDGE ( 'NONE', *, *, #31, .F. ) ;
#14 = ADVANCED_BREP_SHAPE_REPRESENTATION ( '', ( #100, #118 ), #28 ) ;
#15 = DIRECTION ( 'NONE',  ( 1.000000000000000000, 0.000000000000000000, 0.000000000000000000 ) ) ;
#16 = DIRECTION ( 'NONE',  ( -0.7071067811865474617, -0.7071067811865474617, 0.000000000000000000 ) ) ;
#17 = PRESENTATION_STYLE_ASSIGNMENT (( #105 ) ) ;
#18 = DIRECTION ( 'NONE',  ( 1.000000000000000000, -3.088664309232299297E-16, 9.509863424697877761E-18 ) ) ;
#19 = PRODUCT_RELATED_PRODUCT_CATEGORY ( 'part', '', ( #21 ) ) ;
#20 = DIRECTION ( 'NONE',  ( 1.000000000000000000, 0.000000000000000000, 0.000000000000000000 ) ) ;
#21 = PRODUCT ( '20095', '20095', '', ( #166 ) ) ;
#22 = FILL_AREA_STYLE_COLOUR ( '', #172 ) ;
#23 = PRODUCT_DEFINITION ( 'UNKNOWN', '', #113, #30 ) ;
#24 = DIRECTION ( 'NONE',  ( -1.000000000000000000, 0.000000000000000000, 0.000000000000000000 ) ) ;
#25 = SHAPE_DEFINITION_REPRESENTATION ( #140, #177 ) ;
#26 = FACE_OUTER_BOUND ( 'NONE', #251, .T. ) ;
#27 = PRODUCT_RELATED_PRODUCT_CATEGORY ( 'part', '', ( #108 ) ) ;
#28 =( GEOMETRIC_REPRESENTATION_CONTEXT ( 3 ) GLOBAL_UNCERTAINTY_ASSIGNED_CONTEXT ( ( #144 ) ) GLOBAL_UNIT_ASSIGNED_CONTEXT ( ( #218, #43, #67 ) ) REPRESENTATION_CONTEXT ( 'NONE', 'WORKASPACE' ) );
#29 = LINE ( 'NONE', #34, #78 ) ;
#30 = PRODUCT_DEFINITION_CONTEXT ( 'detailed design', #164, 'design' ) ;
#31 = EDGE_CURVE ( 'NONE', #114, #52, #149, .T. ) ;
#32 = ORIENTED_EDGE ( 'NONE', *, *, #238, .F. ) ;
#33 = VECTOR ( 'NONE', #20, 1000.000000000000000 ) ;
#34 = CARTESIAN_POINT ( 'NONE',  ( 10.60660171779821326, 10.60660171779821326, 15.00000000000000000 ) ) ;
#35 = ORIENTED_EDGE ( 'NONE', *, *, #124, .T. ) ;
#36 = AXIS2_PLACEMENT_3D ( 'NONE', #141, #47, #183 ) ;
#37 =( REPRESENTATION_RELATIONSHIP ('NONE','NONE', #177, #138 ) REPRESENTATION_RELATIONSHIP_WITH_TRANSFORMATION ( #160 )SHAPE_REPRESENTATION_RELATIONSHIP( ) );
#38 = CARTESIAN_POINT ( 'NONE',  ( 21.21320343559642652, 0.000000000000000000, 0.000000000000000000 ) ) ;
#39 = SURFACE_SIDE_STYLE ('',( #176 ) ) ;
#40 =( LENGTH_UNIT ( ) NAMED_UNIT ( * ) SI_UNIT ( .MILLI., .METRE. ) );
#41 = EDGE_CURVE ( 'NONE', #117, #52, #29, .T. ) ;
#42 =( NAMED_UNIT ( * ) PLANE_ANGLE_UNIT ( ) SI_UNIT ( $, .RADIAN. ) );
#43 =( NAMED_UNIT ( * ) PLANE_ANGLE_UNIT ( ) SI_UNIT ( $, .RADIAN. ) );
#44 = APPLICATION_CONTEXT ( 'automotive_design' ) ;
#45 = AXIS2_PLACEMENT_3D ( 'NONE', #85, #128, #24 ) ;
#46 = PRODUCT_DEFINITION_FORMATION_WITH_SPECIFIED_SOURCE ( 'ANY', '', #142, .NOT_KNOWN. ) ;
#47 = DIRECTION ( 'NONE',  ( -1.000000000000000000, 1.625883976416343553E-17, -1.625883976416345402E-17 ) ) ;
#48 = DIRECTION ( 'NONE',  ( 0.7071067811865474617, 0.7071067811865474617, 0.000000000000000000 ) ) ;
#49 = CONTEXT_DEPENDENT_SHAPE_REPRESENTATION ( #37, #179 ) ;
#50 = VERTEX_POINT ( 'NONE', #185 ) ;
#51 = PRODUCT_DEFINITION_SHAPE ( 'NONE', 'NONE',  #23 ) ;
#52 = VERTEX_POINT ( 'NONE', #206 ) ;
#53 = SURFACE_SIDE_STYLE ('',( #227 ) ) ;
#54 = EDGE_LOOP ( 'NONE', ( #35, #208, #10, #133 ) ) ;
#55 = AXIS2_PLACEMENT_3D ( 'NONE', #159, #182, #64 ) ;
#56 = DIRECTION ( 'NONE',  ( 0.7071067811865474617, -0.7071067811865474617, 0.000000000000000000 ) ) ;
#57 = ADVANCED_FACE ( 'NONE', ( #97 ), #130, .T. ) ;
#58 = CARTESIAN_POINT ( 'NONE',  ( 10.60660171779821326, 10.60660171779821326, 0.000000000000000000 ) ) ;
#59 = AXIS2_PLACEMENT_3D ( 'NONE', #216, #120, #80 ) ;
#60 = PRODUCT_DEFINITION ( 'UNKNOWN', '', #205, #224 ) ;
#61 =( NAMED_UNIT ( * ) SI_UNIT ( $, .STERADIAN. ) SOLID_ANGLE_UNIT ( ) );
#62 =( LENGTH_UNIT ( ) NAMED_UNIT ( * ) SI_UNIT ( .MILLI., .METRE. ) );
#63 = PRODUCT_DEFINITION_SHAPE ( 'NONE', 'NONE',  #257 ) ;
#64 = DIRECTION ( 'NONE',  ( 0.000000000000000000, -0.000000000000000000, 1.000000000000000000 ) ) ;
#65 = LINE ( 'NONE', #157, #252 ) ;
#66 = APPLICATION_CONTEXT ( 'automotive_design' ) ;
#67 =( NAMED_UNIT ( * ) SI_UNIT ( $, .STERADIAN. ) SOLID_ANGLE_UNIT ( ) );
#68 = MECHANICAL_DESIGN_GEOMETRIC_PRESENTATION_REPRESENTATION (  '', ( #11 ), #210 ) ;
#69 = PRODUCT_DEFINITION_SHAPE ( 'NONE', 'NONE',  #106 ) ;
#70 = STYLED_ITEM ( 'NONE', ( #17 ), #14 ) ;
#71 = APPLICATION_PROTOCOL_DEFINITION ( 'draft international standard', 'automotive_design', 1998, #44 ) ;
#72 = CONTEXT_DEPENDENT_SHAPE_REPRESENTATION ( #191, #3 ) ;
#73 = APPLICATION_CONTEXT ( 'automotive_design' ) ;
#74 = ORIENTED_EDGE ( 'NONE', *, *, #41, .F. ) ;
#75 = DIRECTION ( 'NONE',  ( -0.000000000000000000, -0.000000000000000000, -1.000000000000000000 ) ) ;
#76 = CARTESIAN_POINT ( 'NONE',  ( 21.21320343559642652, 0.000000000000000000, 15.00000000000000000 ) ) ;
#77 =( GEOMETRIC_REPRESENTATION_CONTEXT ( 3 ) GLOBAL_UNCERTAINTY_ASSIGNED_CONTEXT ( ( #94 ) ) GLOBAL_UNIT_ASSIGNED_CONTEXT ( ( #62, #42, #4 ) ) REPRESENTATION_CONTEXT ( 'NONE', 'WORKASPACE' ) );
#78 = VECTOR ( 'NONE', #75, 1000.000000000000000 ) ;
#79 =( LENGTH_UNIT ( ) NAMED_UNIT ( * ) SI_UNIT ( .MILLI., .METRE. ) );
#80 = DIRECTION ( 'NONE',  ( 5.369213004623989729E-17, 0.7071067811865475727, 0.7071067811865472397 ) ) ;
#81 = LINE ( 'NONE', #136, #33 ) ;
#82 = FACE_OUTER_BOUND ( 'NONE', #54, .T. ) ;
#83 = DIRECTION ( 'NONE',  ( 1.000000000000000000, 0.000000000000000000, 0.000000000000000000 ) ) ;
#84 = SHAPE_DEFINITION_REPRESENTATION ( #198, #138 ) ;
#85 = CARTESIAN_POINT ( 'NONE',  ( 0.000000000000000000, 0.000000000000000000, 15.00000000000000000 ) ) ;
#86 = PRODUCT_DEFINITION_CONTEXT ( 'detailed design', #66, 'design' ) ;
#87 = APPLICATION_PROTOCOL_DEFINITION ( 'draft international standard', 'automotive_design', 1998, #164 ) ;
#88 = FACE_OUTER_BOUND ( 'NONE', #134, .T. ) ;
#89 = CARTESIAN_POINT ( 'NONE',  ( 0.000000000000000000, 0.000000000000000000, 0.000000000000000000 ) ) ;
#90 = APPLICATION_CONTEXT ( 'automotive_design' ) ;
#91 = ORIENTED_EDGE ( 'NONE', *, *, #219, .T. ) ;
#92 = VECTOR ( 'NONE', #209, 1000.000000000000114 ) ;
#93 = APPLICATION_PROTOCOL_DEFINITION ( 'draft international standard', 'automotive_design', 1998, #180 ) ;
#94 = UNCERTAINTY_MEASURE_WITH_UNIT (LENGTH_MEASURE( 1.000000000000000082E-05 ), #62, 'distance_accuracy_value', 'NONE');
#95 = CARTESIAN_POINT ( 'NONE',  ( 0.000000000000000000, 0.000000000000000000, 0.000000000000000000 ) ) ;
#96 = VERTEX_POINT ( 'NONE', #170 ) ;
#97 = FACE_OUTER_BOUND ( 'NONE', #169, .T. ) ;
#98 = ADVANCED_FACE ( 'NONE', ( #88 ), #8, .F. ) ;
#99 = DIRECTION ( 'NONE',  ( -0.000000000000000000, -0.000000000000000000, -1.000000000000000000 ) ) ;
#100 = MANIFOLD_SOLID_BREP ( 'Boss-Extrude1', #233 ) ;
#101 =( GEOMETRIC_REPRESENTATION_CONTEXT ( 3 ) GLOBAL_UNCERTAINTY_ASSIGNED_CONTEXT ( ( #132 ) ) GLOBAL_UNIT_ASSIGNED_CONTEXT ( ( #79, #137, #104 ) ) REPRESENTATION_CONTEXT ( 'NONE', 'WORKASPACE' ) );
#102 = VECTOR ( 'NONE', #192, 1000.000000000000000 ) ;
#103 = DIRECTION ( 'NONE',  ( -5.466781300256287912E-17, -0.7071067811865474617, -0.7071067811865474617 ) ) ;
#104 =( NAMED_UNIT ( * ) SI_UNIT ( $, .STERADIAN. ) SOLID_ANGLE_UNIT ( ) );
#105 = SURFACE_STYLE_USAGE ( .BOTH. , #39 ) ;
#106 = PRODUCT_DEFINITION ( 'UNKNOWN', '', #46, #110 ) ;
#107 = DIRECTION ( 'NONE',  ( 0.000000000000000000, 0.000000000000000000, 1.000000000000000000 ) ) ;
#108 = PRODUCT ( 'NOA61_NOA61orEquiv', 'NOA61_NOA61orEquiv', '', ( #111 ) ) ;
#109 = PLANE ( 'NONE',  #45 ) ;
#110 = PRODUCT_DEFINITION_CONTEXT ( 'detailed design', #73, 'design' ) ;
#111 = PRODUCT_CONTEXT ( 'NONE', #125, 'mechanical' ) ;
#112 = APPLICATION_PROTOCOL_DEFINITION ( 'draft international standard', 'automotive_design', 1998, #66 ) ;
#113 = PRODUCT_DEFINITION_FORMATION_WITH_SPECIFIED_SOURCE ( 'ANY', '', #108, .NOT_KNOWN. ) ;
#114 = VERTEX_POINT ( 'NONE', #38 ) ;
#115 = VECTOR ( 'NONE', #15, 1000.000000000000000 ) ;
#116 = ORIENTED_EDGE ( 'NONE', *, *, #250, .F. ) ;
#117 = VERTEX_POINT ( 'NONE', #151 ) ;
#118 = AXIS2_PLACEMENT_3D ( 'NONE', #194, #236, #199 ) ;
#119 = CARTESIAN_POINT ( 'NONE',  ( 0.000000000000000000, 0.000000000000000000, 0.000000000000000000 ) ) ;
#120 = DIRECTION ( 'NONE',  ( 1.000000000000000000, -3.075009512545196736E-16, -5.551115123125781470E-17 ) ) ;
#121 = DIRECTION ( 'NONE',  ( -0.7071067811865474617, 0.7071067811865474617, 0.000000000000000000 ) ) ;
#122 = PRODUCT_RELATED_PRODUCT_CATEGORY ( 'part', '', ( #165 ) ) ;
#123 = COLOUR_RGB ( '',0.7529411764705882248, 0.7529411764705882248, 0.7529411764705882248 ) ;
#124 = EDGE_CURVE ( 'NONE', #163, #114, #242, .T. ) ;
#125 = APPLICATION_CONTEXT ( 'automotive_design' ) ;
#126 = AXIS2_PLACEMENT_3D ( 'NONE', #196, #18, #103 ) ;
#127 = APPLICATION_PROTOCOL_DEFINITION ( 'draft international standard', 'automotive_design', 1998, #90 ) ;
#128 = DIRECTION ( 'NONE',  ( 0.000000000000000000, 0.000000000000000000, -1.000000000000000000 ) ) ;
#129 =( LENGTH_UNIT ( ) NAMED_UNIT ( * ) SI_UNIT ( .MILLI., .METRE. ) );
#130 = PLANE ( 'NONE',  #195 ) ;
#131 = ITEM_DEFINED_TRANSFORMATION ( 'NONE', 'NONE', #126,  #118 ) ;
#132 = UNCERTAINTY_MEASURE_WITH_UNIT (LENGTH_MEASURE( 1.000000000000000082E-05 ), #79, 'distance_accuracy_value', 'NONE');
#133 = ORIENTED_EDGE ( 'NONE', *, *, #155, .T. ) ;
#134 = EDGE_LOOP ( 'NONE', ( #146, #74, #116, #244 ) ) ;
#135 = LINE ( 'NONE', #76, #102 ) ;
#136 = CARTESIAN_POINT ( 'NONE',  ( 0.000000000000000000, 0.000000000000000000, 15.00000000000000000 ) ) ;
#137 =( NAMED_UNIT ( * ) PLANE_ANGLE_UNIT ( ) SI_UNIT ( $, .RADIAN. ) );
#138 = SHAPE_REPRESENTATION ( '47008', ( #232, #59, #126 ), #77 ) ;
#139 = APPLICATION_PROTOCOL_DEFINITION ( 'draft international standard', 'automotive_design', 1998, #73 ) ;
#140 = PRODUCT_DEFINITION_SHAPE ( 'NONE', 'NONE',  #60 ) ;
#141 = CARTESIAN_POINT ( 'NONE',  ( -15.00000000000000711, 1.301042606982605321E-15, 6.740964640719435959E-16 ) ) ;
#142 = PRODUCT ( '32545_32545', '32545_32545', '', ( #245 ) ) ;
#143 = EDGE_CURVE ( 'NONE', #52, #163, #230, .T. ) ;
#144 = UNCERTAINTY_MEASURE_WITH_UNIT (LENGTH_MEASURE( 1.000000000000000082E-05 ), #218, 'distance_accuracy_value', 'NONE');
#145 = FILL_AREA_STYLE_COLOUR ( '', #123 ) ;
#146 = ORIENTED_EDGE ( 'NONE', *, *, #31, .T. ) ;
#147 = PRESENTATION_LAYER_ASSIGNMENT (  '', '', ( #70 ) ) ;
#148 = DIRECTION ( 'NONE',  ( 0.000000000000000000, 0.000000000000000000, -1.000000000000000000 ) ) ;
#149 = LINE ( 'NONE', #5, #92 ) ;
#150 = PLANE ( 'NONE',  #240 ) ;
#151 = CARTESIAN_POINT ( 'NONE',  ( 10.60660171779821326, 10.60660171779821326, 15.00000000000000000 ) ) ;
#152 =( NAMED_UNIT ( * ) PLANE_ANGLE_UNIT ( ) SI_UNIT ( $, .RADIAN. ) );
#153 = VECTOR ( 'NONE', #16, 1000.000000000000114 ) ;
#154 = AXIS2_PLACEMENT_3D ( 'NONE', #89, #220, #2 ) ;
#155 = EDGE_CURVE ( 'NONE', #50, #163, #189, .T. ) ;
#156 = CARTESIAN_POINT ( 'NONE',  ( 0.000000000000000000, 0.000000000000000000, 0.000000000000000000 ) ) ;
#157 = CARTESIAN_POINT ( 'NONE',  ( 21.21320343559642652, 0.000000000000000000, 15.00000000000000000 ) ) ;
#158 = VECTOR ( 'NONE', #99, 1000.000000000000000 ) ;
#159 = CARTESIAN_POINT ( 'NONE',  ( 0.000000000000000000, 0.000000000000000000, 15.00000000000000000 ) ) ;
#160 = ITEM_DEFINED_TRANSFORMATION ( 'NONE', 'NONE', #36,  #232 ) ;
#161 = CARTESIAN_POINT ( 'NONE',  ( 21.21320343559642652, 0.000000000000000000, 15.00000000000000000 ) ) ;
#162 = APPLICATION_PROTOCOL_DEFINITION ( 'draft international standard', 'automotive_design', 1998, #223 ) ;
#163 = VERTEX_POINT ( 'NONE', #171 ) ;
#164 = APPLICATION_CONTEXT ( 'automotive_design' ) ;
#165 = PRODUCT ( '47008', '47008', '', ( #7 ) ) ;
#166 = PRODUCT_CONTEXT ( 'NONE', #223, 'mechanical' ) ;
#167 = ORIENTED_EDGE ( 'NONE', *, *, #124, .F. ) ;
#168 = ORIENTED_EDGE ( 'NONE', *, *, #143, .T. ) ;
#169 = EDGE_LOOP ( 'NONE', ( #187, #13, #167 ) ) ;
#170 = CARTESIAN_POINT ( 'NONE',  ( 21.21320343559642652, 0.000000000000000000, 15.00000000000000000 ) ) ;
#171 = CARTESIAN_POINT ( 'NONE',  ( 0.000000000000000000, 0.000000000000000000, 0.000000000000000000 ) ) ;
#172 = COLOUR_RGB ( '',0.7529411764705882248, 0.7529411764705882248, 0.7529411764705882248 ) ;
#173 = SURFACE_STYLE_USAGE ( .BOTH. , #53 ) ;
#174 = FACE_OUTER_BOUND ( 'NONE', #226, .T. ) ;
#175 = CARTESIAN_POINT ( 'NONE',  ( 0.000000000000000000, 0.000000000000000000, 15.00000000000000000 ) ) ;
#176 = SURFACE_STYLE_FILL_AREA ( #178 ) ;
#177 = SHAPE_REPRESENTATION ( '20095', ( #154, #36 ), #12 ) ;
#178 = FILL_AREA_STYLE ('',( #22 ) ) ;
#179 = PRODUCT_DEFINITION_SHAPE ( 'NONE', 'NONE',  #255 ) ;
#180 = APPLICATION_CONTEXT ( 'automotive_design' ) ;
#181 = ITEM_DEFINED_TRANSFORMATION ( 'NONE', 'NONE', #59,  #118 ) ;
#182 = DIRECTION ( 'NONE',  ( 0.000000000000000000, 1.000000000000000000, 0.000000000000000000 ) ) ;
#183 = DIRECTION ( 'NONE',  ( -1.625883976416344785E-17, 2.775557561562891351E-16, 1.000000000000000000 ) ) ;
#184 = ORIENTED_EDGE ( 'NONE', *, *, #41, .T. ) ;
#185 = CARTESIAN_POINT ( 'NONE',  ( 0.000000000000000000, 0.000000000000000000, 15.00000000000000000 ) ) ;
#186 = VECTOR ( 'NONE', #237, 1000.000000000000114 ) ;
#187 = ORIENTED_EDGE ( 'NONE', *, *, #143, .F. ) ;
#188 = ORIENTED_EDGE ( 'NONE', *, *, #238, .T. ) ;
#189 = LINE ( 'NONE', #175, #158 ) ;
#190 = EDGE_CURVE ( 'NONE', #96, #114, #135, .T. ) ;
#191 =( REPRESENTATION_RELATIONSHIP ('NONE','NONE', #138, #6 ) REPRESENTATION_RELATIONSHIP_WITH_TRANSFORMATION ( #181 )SHAPE_REPRESENTATION_RELATIONSHIP( ) );
#192 = DIRECTION ( 'NONE',  ( -0.000000000000000000, -0.000000000000000000, -1.000000000000000000 ) ) ;
#193 = ADVANCED_FACE ( 'NONE', ( #174 ), #150, .F. ) ;
#194 = CARTESIAN_POINT ( 'NONE',  ( 0.000000000000000000, 0.000000000000000000, 0.000000000000000000 ) ) ;
#195 = AXIS2_PLACEMENT_3D ( 'NONE', #95, #148, #228 ) ;
#196 = CARTESIAN_POINT ( 'NONE',  ( 2.034464459728971764E-15, 15.00000000000000000, -6.938893903907228378E-15 ) ) ;
#197 = LINE ( 'NONE', #235, #186 ) ;
#198 = PRODUCT_DEFINITION_SHAPE ( 'NONE', 'NONE',  #214 ) ;
#199 = DIRECTION ( 'NONE',  ( 1.000000000000000000, 0.000000000000000000, 0.000000000000000000 ) ) ;
#200 = DIRECTION ( 'NONE',  ( 0.000000000000000000, 0.000000000000000000, 1.000000000000000000 ) ) ;
#201 = PLANE ( 'NONE',  #55 ) ;
#202 = ADVANCED_FACE ( 'NONE', ( #26 ), #109, .F. ) ;
#203 = UNCERTAINTY_MEASURE_WITH_UNIT (LENGTH_MEASURE( 1.000000000000000082E-05 ), #40, 'distance_accuracy_value', 'NONE');
#204 = SHAPE_DEFINITION_REPRESENTATION ( #69, #6 ) ;
#205 = PRODUCT_DEFINITION_FORMATION_WITH_SPECIFIED_SOURCE ( 'ANY', '', #21, .NOT_KNOWN. ) ;
#206 = CARTESIAN_POINT ( 'NONE',  ( 10.60660171779821326, 10.60660171779821326, 0.000000000000000000 ) ) ;
#207 = DIRECTION ( 'NONE',  ( 0.7071067811865475727, -0.7071067811865475727, 0.000000000000000000 ) ) ;
#208 = ORIENTED_EDGE ( 'NONE', *, *, #190, .F. ) ;
#209 = DIRECTION ( 'NONE',  ( -0.7071067811865474617, 0.7071067811865474617, 0.000000000000000000 ) ) ;
#210 =( GEOMETRIC_REPRESENTATION_CONTEXT ( 3 ) GLOBAL_UNCERTAINTY_ASSIGNED_CONTEXT ( ( #203 ) ) GLOBAL_UNIT_ASSIGNED_CONTEXT ( ( #40, #152, #61 ) ) REPRESENTATION_CONTEXT ( 'NONE', 'WORKASPACE' ) );
#211 = MECHANICAL_DESIGN_GEOMETRIC_PRESENTATION_REPRESENTATION (  '', ( #70 ), #101 ) ;
#212 = ADVANCED_FACE ( 'NONE', ( #82 ), #201, .F. ) ;
#213 = DIRECTION ( 'NONE',  ( -0.7071067811865475727, -0.7071067811865475727, 0.000000000000000000 ) ) ;
#214 = PRODUCT_DEFINITION ( 'UNKNOWN', '', #215, #86 ) ;
#215 = PRODUCT_DEFINITION_FORMATION_WITH_SPECIFIED_SOURCE ( 'ANY', '', #165, .NOT_KNOWN. ) ;
#216 = CARTESIAN_POINT ( 'NONE',  ( -9.179790605343958252E-16, -1.057160010520153387E-15, -15.00000000000000711 ) ) ;
#217 = DIRECTION ( 'NONE',  ( 1.000000000000000000, 0.000000000000000000, 0.000000000000000000 ) ) ;
#218 =( LENGTH_UNIT ( ) NAMED_UNIT ( * ) SI_UNIT ( .MILLI., .METRE. ) );
#219 = EDGE_CURVE ( 'NONE', #50, #96, #81, .T. ) ;
#220 = DIRECTION ( 'NONE',  ( 0.000000000000000000, 0.000000000000000000, 1.000000000000000000 ) ) ;
#221 = PRESENTATION_LAYER_ASSIGNMENT (  '', '', ( #11 ) ) ;
#222 = CARTESIAN_POINT ( 'NONE',  ( 0.000000000000000000, 0.000000000000000000, 0.000000000000000000 ) ) ;
#223 = APPLICATION_CONTEXT ( 'automotive_design' ) ;
#224 = PRODUCT_DEFINITION_CONTEXT ( 'detailed design', #44, 'design' ) ;
#225 = ORIENTED_EDGE ( 'NONE', *, *, #250, .T. ) ;
#226 = EDGE_LOOP ( 'NONE', ( #168, #249, #32, #184 ) ) ;
#227 = SURFACE_STYLE_FILL_AREA ( #248 ) ;
#228 = DIRECTION ( 'NONE',  ( -1.000000000000000000, 0.000000000000000000, 0.000000000000000000 ) ) ;
#229 = CARTESIAN_POINT ( 'NONE',  ( 10.60660171779821326, 10.60660171779821326, 15.00000000000000000 ) ) ;
#230 = LINE ( 'NONE', #58, #153 ) ;
#231 = AXIS2_PLACEMENT_3D ( 'NONE', #161, #213, #56 ) ;
#232 = AXIS2_PLACEMENT_3D ( 'NONE', #156, #200, #217 ) ;
#233 = CLOSED_SHELL ( 'NONE', ( #193, #212, #98, #202, #57 ) ) ;
#234 =( REPRESENTATION_RELATIONSHIP ('NONE','NONE', #138, #6 ) REPRESENTATION_RELATIONSHIP_WITH_TRANSFORMATION ( #131 )SHAPE_REPRESENTATION_RELATIONSHIP( ) );
#235 = CARTESIAN_POINT ( 'NONE',  ( 10.60660171779821326, 10.60660171779821326, 15.00000000000000000 ) ) ;
#236 = DIRECTION ( 'NONE',  ( 0.000000000000000000, 0.000000000000000000, 1.000000000000000000 ) ) ;
#237 = DIRECTION ( 'NONE',  ( -0.7071067811865474617, -0.7071067811865474617, 0.000000000000000000 ) ) ;
#238 = EDGE_CURVE ( 'NONE', #117, #50, #197, .T. ) ;
#239 =( NAMED_UNIT ( * ) SI_UNIT ( $, .STERADIAN. ) SOLID_ANGLE_UNIT ( ) );
#240 = AXIS2_PLACEMENT_3D ( 'NONE', #229, #207, #48 ) ;
#241 = CONTEXT_DEPENDENT_SHAPE_REPRESENTATION ( #234, #63 ) ;
#242 = LINE ( 'NONE', #119, #115 ) ;
#243 = PRODUCT_RELATED_PRODUCT_CATEGORY ( 'part', '', ( #142 ) ) ;
#244 = ORIENTED_EDGE ( 'NONE', *, *, #190, .T. ) ;
#245 = PRODUCT_CONTEXT ( 'NONE', #180, 'mechanical' ) ;
#246 = UNCERTAINTY_MEASURE_WITH_UNIT (LENGTH_MEASURE( 1.000000000000000082E-05 ), #129, 'distance_accuracy_value', 'NONE');
#247 = AXIS2_PLACEMENT_3D ( 'NONE', #222, #107, #83 ) ;
#248 = FILL_AREA_STYLE ('',( #145 ) ) ;
#249 = ORIENTED_EDGE ( 'NONE', *, *, #155, .F. ) ;
#250 = EDGE_CURVE ( 'NONE', #96, #117, #65, .T. ) ;
#251 = EDGE_LOOP ( 'NONE', ( #188, #91, #225 ) ) ;
#252 = VECTOR ( 'NONE', #121, 1000.000000000000114 ) ;
#253 = PRESENTATION_STYLE_ASSIGNMENT (( #173 ) ) ;
#254 = SHAPE_REPRESENTATION_RELATIONSHIP ( 'NONE' , 'NONE' ,  #6, #14 ) ;
#255 = NEXT_ASSEMBLY_USAGE_OCCURRENCE ( 'NAUO1', ' ', ' ', #60, #214, $ ) ;
#256 = NEXT_ASSEMBLY_USAGE_OCCURRENCE ( 'NAUO2', ' ', ' ', #214, #106, $ ) ;
#257 = NEXT_ASSEMBLY_USAGE_OCCURRENCE ( 'NAUO3', ' ', ' ', #214, #106, $ ) ;
ENDSEC;
END-ISO-10303-21;
