ISO-10303-21;
HEADER;
FILE_DESCRIPTION (( 'STEP AP203' ),
    '1' );
FILE_NAME ('Web Model 68384.STEP',
    '2017-01-31T19:53:08',
    ( '' ),
    ( '' ),
    'SwSTEP 2.0',
    'SolidWorks 2016',
    '' );
FILE_SCHEMA (( 'CONFIG_CONTROL_DESIGN' ));
ENDSEC;

DATA;
#1 = CARTESIAN_POINT ( 'NONE',  ( -8.750000000000000000, -6.250000000000000900, 3.000000000000000000 ) ) ;
#2 = COORDINATED_UNIVERSAL_TIME_OFFSET ( 5, 0, .BEHIND. ) ;
#3 = PERSON_AND_ORGANIZATION_ROLE ( 'design_supplier' ) ;
#4 = CARTESIAN_POINT ( 'NONE',  ( 8.750000000000000000, -6.250000000000000900, 3.000000000000000000 ) ) ;
#5 = CARTESIAN_POINT ( 'NONE',  ( -8.750000000000000000, 6.249999999999999100, 3.000000000000000000 ) ) ;
#6 = VECTOR ( 'NONE', #23, 1000.000000000000000 ) ;
#7 = APPROVAL_DATE_TIME ( #192, #31 ) ;
#8 = PRODUCT_DEFINITION_SHAPE ( 'NONE', 'NONE',  #53 ) ;
#9 = EDGE_CURVE ( 'NONE', #194, #118, #180, .T. ) ;
#10 = CC_DESIGN_PERSON_AND_ORGANIZATION_ASSIGNMENT ( #13, #211, ( #119 ) ) ;
#11 = EDGE_CURVE ( 'NONE', #212, #112, #55, .T. ) ;
#12 = VECTOR ( 'NONE', #184, 1000.000000000000000 ) ;
#13 = PERSON_AND_ORGANIZATION ( #228, #163 ) ;
#14 = DATE_AND_TIME ( #43, #95 ) ;
#15 = DATE_AND_TIME ( #37, #82 ) ;
#16 = DIRECTION ( 'NONE',  ( 0.0000000000000000000, -0.0000000000000000000, 1.000000000000000000 ) ) ;
#17 = DIRECTION ( 'NONE',  ( 0.0000000000000000000, -1.000000000000000000, 0.0000000000000000000 ) ) ;
#18 = DIRECTION ( 'NONE',  ( -0.0000000000000000000, -0.0000000000000000000, -1.000000000000000000 ) ) ;
#19 = CARTESIAN_POINT ( 'NONE',  ( -8.750000000000000000, 6.249999999999999100, 3.000000000000000000 ) ) ;
#20 = ORIENTED_EDGE ( 'NONE', *, *, #72, .T. ) ;
#21 = DIRECTION ( 'NONE',  ( 1.110223024625156500E-015, 1.000000000000000000, -0.0000000000000000000 ) ) ;
#22 = APPROVAL_STATUS ( 'not_yet_approved' ) ;
#23 = DIRECTION ( 'NONE',  ( 0.0000000000000000000, -1.000000000000000000, 0.0000000000000000000 ) ) ;
#24 = LINE ( 'NONE', #4, #214 ) ;
#25 = DIRECTION ( 'NONE',  ( -0.0000000000000000000, -0.0000000000000000000, -1.000000000000000000 ) ) ;
#26 = PERSON_AND_ORGANIZATION_ROLE ( 'classification_officer' ) ;
#27 = PERSON_AND_ORGANIZATION ( #228, #163 ) ;
#28 = ADVANCED_FACE ( 'NONE', ( #134 ), #79, .T. ) ;
#29 = ORIENTED_EDGE ( 'NONE', *, *, #153, .F. ) ;
#30 = ORIENTED_EDGE ( 'NONE', *, *, #232, .F. ) ;
#31 = APPROVAL ( #150, 'UNSPECIFIED' ) ;
#32 = APPROVAL_PERSON_ORGANIZATION ( #47, #31, #62 ) ;
#33 = ORIENTED_EDGE ( 'NONE', *, *, #78, .F. ) ;
#34 = ADVANCED_BREP_SHAPE_REPRESENTATION ( 'Web Model 68384', ( #137, #217 ), #117 ) ;
#35 = CARTESIAN_POINT ( 'NONE',  ( 8.750000000000000000, -6.250000000000000900, 3.000000000000000000 ) ) ;
#36 = VECTOR ( 'NONE', #18, 1000.000000000000000 ) ;
#37 = CALENDAR_DATE ( 2017, 31, 1 ) ;
#38 = EDGE_LOOP ( 'NONE', ( #164, #29, #90, #52 ) ) ;
#39 = CARTESIAN_POINT ( 'NONE',  ( -8.750000000000000000, -6.250000000000000900, 3.000000000000000000 ) ) ;
#40 = ORIENTED_EDGE ( 'NONE', *, *, #232, .T. ) ;
#41 = EDGE_CURVE ( 'NONE', #118, #172, #225, .T. ) ;
#42 = SECURITY_CLASSIFICATION_LEVEL ( 'unclassified' ) ;
#43 = CALENDAR_DATE ( 2017, 31, 1 ) ;
#44 = DIRECTION ( 'NONE',  ( -0.0000000000000000000, -0.0000000000000000000, -1.000000000000000000 ) ) ;
#45 = APPLICATION_PROTOCOL_DEFINITION ( 'international standard', 'config_control_design', 1994, #94 ) ;
#46 = APPLICATION_CONTEXT ( 'configuration controlled 3d designs of mechanical parts and assemblies' ) ;
#47 = PERSON_AND_ORGANIZATION ( #228, #163 ) ;
#48 = ORIENTED_EDGE ( 'NONE', *, *, #11, .F. ) ;
#49 = LOCAL_TIME ( 14, 53, 8.000000000000000000, #104 ) ;
#50 = VECTOR ( 'NONE', #131, 1000.000000000000000 ) ;
#51 = LOCAL_TIME ( 14, 53, 8.000000000000000000, #158 ) ;
#52 = ORIENTED_EDGE ( 'NONE', *, *, #78, .T. ) ;
#53 = PRODUCT_DEFINITION ( 'UNKNOWN', '', #151, #178 ) ;
#54 = EDGE_CURVE ( 'NONE', #122, #212, #71, .T. ) ;
#55 = LINE ( 'NONE', #147, #50 ) ;
#56 = DIRECTION ( 'NONE',  ( -1.110223024625156300E-015, -1.000000000000000000, 0.0000000000000000000 ) ) ;
#57 = CARTESIAN_POINT ( 'NONE',  ( -8.750000000000000000, -6.250000000000000900, 0.0000000000000000000 ) ) ;
#58 = DIRECTION ( 'NONE',  ( -0.0000000000000000000, -0.0000000000000000000, -1.000000000000000000 ) ) ;
#59 = PLANE ( 'NONE',  #84 ) ;
#60 = DIRECTION ( 'NONE',  ( -0.0000000000000000000, 0.0000000000000000000, -1.000000000000000000 ) ) ;
#61 =( NAMED_UNIT ( * ) SI_UNIT ( $, .STERADIAN. ) SOLID_ANGLE_UNIT ( ) );
#62 = APPROVAL_ROLE ( '' ) ;
#63 = VECTOR ( 'NONE', #58, 1000.000000000000000 ) ;
#64 = EDGE_CURVE ( 'NONE', #122, #194, #233, .T. ) ;
#65 = EDGE_LOOP ( 'NONE', ( #226, #48, #85, #92 ) ) ;
#66 = ADVANCED_FACE ( 'NONE', ( #199 ), #59, .F. ) ;
#67 = APPROVAL ( #22, 'UNSPECIFIED' ) ;
#68 = FACE_OUTER_BOUND ( 'NONE', #86, .T. ) ;
#69 = COORDINATED_UNIVERSAL_TIME_OFFSET ( 5, 0, .BEHIND. ) ;
#70 = ORIENTED_EDGE ( 'NONE', *, *, #54, .F. ) ;
#71 = LINE ( 'NONE', #39, #36 ) ;
#72 = EDGE_CURVE ( 'NONE', #172, #122, #106, .T. ) ;
#73 = EDGE_LOOP ( 'NONE', ( #236, #30, #109, #182 ) ) ;
#74 = CARTESIAN_POINT ( 'NONE',  ( -8.750000000000000000, 6.249999999999999100, 3.000000000000000000 ) ) ;
#75 = VERTEX_POINT ( 'NONE', #189 ) ;
#76 = CC_DESIGN_APPROVAL ( #67, ( #53 ) ) ;
#77 = CARTESIAN_POINT ( 'NONE',  ( 8.750000000000000000, -6.250000000000000900, 0.0000000000000000000 ) ) ;
#78 = EDGE_CURVE ( 'NONE', #194, #112, #24, .T. ) ;
#79 = PLANE ( 'NONE',  #105 ) ;
#80 =( LENGTH_UNIT ( ) NAMED_UNIT ( * ) SI_UNIT ( .MILLI., .METRE. ) );
#81 = APPLICATION_PROTOCOL_DEFINITION ( 'international standard', 'config_control_design', 1994, #46 ) ;
#82 = LOCAL_TIME ( 14, 53, 8.000000000000000000, #160 ) ;
#83 = PERSON_AND_ORGANIZATION ( #228, #163 ) ;
#84 = AXIS2_PLACEMENT_3D ( 'NONE', #74, #130, #60 ) ;
#85 = ORIENTED_EDGE ( 'NONE', *, *, #224, .F. ) ;
#86 = EDGE_LOOP ( 'NONE', ( #103, #33, #213, #230 ) ) ;
#87 = CC_DESIGN_PERSON_AND_ORGANIZATION_ASSIGNMENT ( #186, #171, ( #53 ) ) ;
#88 = EDGE_CURVE ( 'NONE', #128, #75, #196, .T. ) ;
#89 = CARTESIAN_POINT ( 'NONE',  ( -8.750000000000000000, 6.249999999999999100, 3.000000000000000000 ) ) ;
#90 = ORIENTED_EDGE ( 'NONE', *, *, #9, .F. ) ;
#91 = DIRECTION ( 'NONE',  ( 1.000000000000000000, 0.0000000000000000000, 0.0000000000000000000 ) ) ;
#92 = ORIENTED_EDGE ( 'NONE', *, *, #88, .F. ) ;
#93 = CARTESIAN_POINT ( 'NONE',  ( -8.750000000000000000, 6.249999999999999100, 3.000000000000000000 ) ) ;
#94 = APPLICATION_CONTEXT ( 'configuration controlled 3d designs of mechanical parts and assemblies' ) ;
#95 = LOCAL_TIME ( 14, 53, 8.000000000000000000, #69 ) ;
#96 = DIRECTION ( 'NONE',  ( -0.0000000000000000000, 0.0000000000000000000, 1.000000000000000000 ) ) ;
#97 = UNCERTAINTY_MEASURE_WITH_UNIT (LENGTH_MEASURE( 1.000000000000000100E-005 ), #80, 'distance_accuracy_value', 'NONE');
#98 = DIRECTION ( 'NONE',  ( -1.000000000000000000, -0.0000000000000000000, -0.0000000000000000000 ) ) ;
#99 = PERSON_AND_ORGANIZATION_ROLE ( 'creator' ) ;
#100 = APPROVAL_ROLE ( '' ) ;
#101 = ADVANCED_FACE ( 'NONE', ( #141 ), #167, .F. ) ;
#102 = CLOSED_SHELL ( 'NONE', ( #116, #156, #66, #136, #28, #101 ) ) ;
#103 = ORIENTED_EDGE ( 'NONE', *, *, #11, .T. ) ;
#104 = COORDINATED_UNIVERSAL_TIME_OFFSET ( 5, 0, .BEHIND. ) ;
#105 = AXIS2_PLACEMENT_3D ( 'NONE', #183, #202, #91 ) ;
#106 = LINE ( 'NONE', #152, #6 ) ;
#107 = VECTOR ( 'NONE', #110, 1000.000000000000000 ) ;
#108 = DIRECTION ( 'NONE',  ( 0.0000000000000000000, -1.000000000000000000, 0.0000000000000000000 ) ) ;
#109 = ORIENTED_EDGE ( 'NONE', *, *, #41, .F. ) ;
#110 = DIRECTION ( 'NONE',  ( -1.000000000000000000, -0.0000000000000000000, -0.0000000000000000000 ) ) ;
#111 = CALENDAR_DATE ( 2017, 31, 1 ) ;
#112 = VERTEX_POINT ( 'NONE', #168 ) ;
#113 = CARTESIAN_POINT ( 'NONE',  ( 8.750000000000014200, 6.249999999999999100, 3.000000000000000000 ) ) ;
#114 = MECHANICAL_CONTEXT ( 'NONE', #94, 'mechanical' ) ;
#115 =( NAMED_UNIT ( * ) PLANE_ANGLE_UNIT ( ) SI_UNIT ( $, .RADIAN. ) );
#116 = ADVANCED_FACE ( 'NONE', ( #120 ), #207, .F. ) ;
#117 =( GEOMETRIC_REPRESENTATION_CONTEXT ( 3 ) GLOBAL_UNCERTAINTY_ASSIGNED_CONTEXT ( ( #97 ) ) GLOBAL_UNIT_ASSIGNED_CONTEXT ( ( #80, #115, #61 ) ) REPRESENTATION_CONTEXT ( 'NONE', 'WORKASPACE' ) );
#118 = VERTEX_POINT ( 'NONE', #221 ) ;
#119 = PRODUCT ( 'Web Model 68384', 'Web Model 68384', '', ( #114 ) ) ;
#120 = FACE_OUTER_BOUND ( 'NONE', #38, .T. ) ;
#121 = VECTOR ( 'NONE', #25, 1000.000000000000000 ) ;
#122 = VERTEX_POINT ( 'NONE', #144 ) ;
#123 = AXIS2_PLACEMENT_3D ( 'NONE', #146, #129, #56 ) ;
#124 = LINE ( 'NONE', #5, #121 ) ;
#125 = PERSON_AND_ORGANIZATION ( #228, #163 ) ;
#126 = CARTESIAN_POINT ( 'NONE',  ( -8.750000000000000000, -6.250000000000000900, 3.000000000000000000 ) ) ;
#127 = CARTESIAN_POINT ( 'NONE',  ( -8.750000000000000000, 6.249999999999999100, 0.0000000000000000000 ) ) ;
#128 = VERTEX_POINT ( 'NONE', #200 ) ;
#129 = DIRECTION ( 'NONE',  ( -1.000000000000000000, 1.110223024625156300E-015, 0.0000000000000000000 ) ) ;
#130 = DIRECTION ( 'NONE',  ( 1.000000000000000000, 0.0000000000000000000, -0.0000000000000000000 ) ) ;
#131 = DIRECTION ( 'NONE',  ( 1.000000000000000000, 0.0000000000000000000, 0.0000000000000000000 ) ) ;
#132 = APPROVAL_DATE_TIME ( #179, #174 ) ;
#133 = DIRECTION ( 'NONE',  ( 1.000000000000000000, 0.0000000000000000000, 0.0000000000000000000 ) ) ;
#134 = FACE_OUTER_BOUND ( 'NONE', #139, .T. ) ;
#135 = VECTOR ( 'NONE', #21, 1000.000000000000000 ) ;
#136 = ADVANCED_FACE ( 'NONE', ( #68 ), #148, .F. ) ;
#137 = MANIFOLD_SOLID_BREP ( 'Extrude1', #102 ) ;
#138 = EDGE_CURVE ( 'NONE', #112, #128, #162, .T. ) ;
#139 = EDGE_LOOP ( 'NONE', ( #176, #216, #20, #161 ) ) ;
#140 = CC_DESIGN_DATE_AND_TIME_ASSIGNMENT ( #210, #206, ( #53 ) ) ;
#141 = FACE_OUTER_BOUND ( 'NONE', #65, .T. ) ;
#142 = CARTESIAN_POINT ( 'NONE',  ( 8.750000000000014200, 6.249999999999999100, 3.000000000000000000 ) ) ;
#143 = CC_DESIGN_APPROVAL ( #31, ( #195 ) ) ;
#144 = CARTESIAN_POINT ( 'NONE',  ( -8.750000000000000000, -6.250000000000000900, 3.000000000000000000 ) ) ;
#145 = ORIENTED_EDGE ( 'NONE', *, *, #224, .T. ) ;
#146 = CARTESIAN_POINT ( 'NONE',  ( 8.750000000000014200, 6.249999999999999100, 3.000000000000000000 ) ) ;
#147 = CARTESIAN_POINT ( 'NONE',  ( -8.750000000000000000, -6.250000000000000900, 0.0000000000000000000 ) ) ;
#148 = PLANE ( 'NONE',  #188 ) ;
#149 = APPROVAL_PERSON_ORGANIZATION ( #209, #67, #169 ) ;
#150 = APPROVAL_STATUS ( 'not_yet_approved' ) ;
#151 = PRODUCT_DEFINITION_FORMATION_WITH_SPECIFIED_SOURCE ( 'ANY', '', #119, .NOT_KNOWN. ) ;
#152 = CARTESIAN_POINT ( 'NONE',  ( -8.750000000000000000, 6.249999999999999100, 3.000000000000000000 ) ) ;
#153 = EDGE_CURVE ( 'NONE', #118, #128, #208, .T. ) ;
#154 = CARTESIAN_POINT ( 'NONE',  ( 0.0000000000000000000, 0.0000000000000000000, 0.0000000000000000000 ) ) ;
#155 = VECTOR ( 'NONE', #98, 1000.000000000000000 ) ;
#156 = ADVANCED_FACE ( 'NONE', ( #229 ), #181, .F. ) ;
#157 = CC_DESIGN_APPROVAL ( #174, ( #151 ) ) ;
#158 = COORDINATED_UNIVERSAL_TIME_OFFSET ( 5, 0, .BEHIND. ) ;
#159 = CC_DESIGN_SECURITY_CLASSIFICATION ( #195, ( #151 ) ) ;
#160 = COORDINATED_UNIVERSAL_TIME_OFFSET ( 5, 0, .BEHIND. ) ;
#161 = ORIENTED_EDGE ( 'NONE', *, *, #64, .T. ) ;
#162 = LINE ( 'NONE', #201, #12 ) ;
#163 = ORGANIZATION ( 'UNSPECIFIED', 'UNSPECIFIED', '' ) ;
#164 = ORIENTED_EDGE ( 'NONE', *, *, #138, .T. ) ;
#165 = CC_DESIGN_PERSON_AND_ORGANIZATION_ASSIGNMENT ( #125, #99, ( #151 ) ) ;
#166 = DIRECTION ( 'NONE',  ( 0.0000000000000000000, 1.000000000000000000, 0.0000000000000000000 ) ) ;
#167 = PLANE ( 'NONE',  #227 ) ;
#168 = CARTESIAN_POINT ( 'NONE',  ( 8.750000000000000000, -6.250000000000000900, 0.0000000000000000000 ) ) ;
#169 = APPROVAL_ROLE ( '' ) ;
#170 = PERSON_AND_ORGANIZATION ( #228, #163 ) ;
#171 = PERSON_AND_ORGANIZATION_ROLE ( 'creator' ) ;
#172 = VERTEX_POINT ( 'NONE', #93 ) ;
#173 = LINE ( 'NONE', #127, #234 ) ;
#174 = APPROVAL ( #220, 'UNSPECIFIED' ) ;
#175 = LOCAL_TIME ( 14, 53, 8.000000000000000000, #2 ) ;
#176 = ORIENTED_EDGE ( 'NONE', *, *, #9, .T. ) ;
#177 = CC_DESIGN_PERSON_AND_ORGANIZATION_ASSIGNMENT ( #170, #3, ( #151 ) ) ;
#178 = DESIGN_CONTEXT ( 'detailed design', #46, 'design' ) ;
#179 = DATE_AND_TIME ( #231, #49 ) ;
#180 = LINE ( 'NONE', #113, #135 ) ;
#181 = PLANE ( 'NONE',  #222 ) ;
#182 = ORIENTED_EDGE ( 'NONE', *, *, #153, .T. ) ;
#183 = CARTESIAN_POINT ( 'NONE',  ( 8.750000000000000000, -6.250000000000000900, 3.000000000000000000 ) ) ;
#184 = DIRECTION ( 'NONE',  ( 1.110223024625156500E-015, 1.000000000000000000, -0.0000000000000000000 ) ) ;
#185 = CARTESIAN_POINT ( 'NONE',  ( -8.750000000000000000, 6.249999999999999100, 0.0000000000000000000 ) ) ;
#186 = PERSON_AND_ORGANIZATION ( #228, #163 ) ;
#187 = SHAPE_DEFINITION_REPRESENTATION ( #8, #34 ) ;
#188 = AXIS2_PLACEMENT_3D ( 'NONE', #126, #166, #16 ) ;
#189 = CARTESIAN_POINT ( 'NONE',  ( -8.750000000000000000, 6.249999999999999100, 0.0000000000000000000 ) ) ;
#190 = DIRECTION ( 'NONE',  ( 0.0000000000000000000, 0.0000000000000000000, 1.000000000000000000 ) ) ;
#191 = VECTOR ( 'NONE', #237, 1000.000000000000000 ) ;
#192 = DATE_AND_TIME ( #111, #51 ) ;
#193 = ORIENTED_EDGE ( 'NONE', *, *, #72, .F. ) ;
#194 = VERTEX_POINT ( 'NONE', #35 ) ;
#195 = SECURITY_CLASSIFICATION ( '', '', #42 ) ;
#196 = LINE ( 'NONE', #185, #155 ) ;
#197 = PRODUCT_RELATED_PRODUCT_CATEGORY ( 'detail', '', ( #119 ) ) ;
#198 = CALENDAR_DATE ( 2017, 31, 1 ) ;
#199 = FACE_OUTER_BOUND ( 'NONE', #235, .T. ) ;
#200 = CARTESIAN_POINT ( 'NONE',  ( 8.750000000000014200, 6.249999999999999100, 0.0000000000000000000 ) ) ;
#201 = CARTESIAN_POINT ( 'NONE',  ( 8.750000000000014200, 6.249999999999999100, 0.0000000000000000000 ) ) ;
#202 = DIRECTION ( 'NONE',  ( -0.0000000000000000000, 0.0000000000000000000, 1.000000000000000000 ) ) ;
#203 = CC_DESIGN_PERSON_AND_ORGANIZATION_ASSIGNMENT ( #27, #26, ( #195 ) ) ;
#204 = DATE_TIME_ROLE ( 'classification_date' ) ;
#205 = DIRECTION ( 'NONE',  ( 1.000000000000000000, 0.0000000000000000000, 0.0000000000000000000 ) ) ;
#206 = DATE_TIME_ROLE ( 'creation_date' ) ;
#207 = PLANE ( 'NONE',  #123 ) ;
#208 = LINE ( 'NONE', #142, #63 ) ;
#209 = PERSON_AND_ORGANIZATION ( #228, #163 ) ;
#210 = DATE_AND_TIME ( #198, #175 ) ;
#211 = PERSON_AND_ORGANIZATION_ROLE ( 'design_owner' ) ;
#212 = VERTEX_POINT ( 'NONE', #57 ) ;
#213 = ORIENTED_EDGE ( 'NONE', *, *, #64, .F. ) ;
#214 = VECTOR ( 'NONE', #44, 1000.000000000000000 ) ;
#215 = APPROVAL_PERSON_ORGANIZATION ( #83, #174, #100 ) ;
#216 = ORIENTED_EDGE ( 'NONE', *, *, #41, .T. ) ;
#217 = AXIS2_PLACEMENT_3D ( 'NONE', #154, #190, #133 ) ;
#218 = CC_DESIGN_DATE_AND_TIME_ASSIGNMENT ( #15, #204, ( #195 ) ) ;
#219 = DIRECTION ( 'NONE',  ( 0.0000000000000000000, -0.0000000000000000000, -1.000000000000000000 ) ) ;
#220 = APPROVAL_STATUS ( 'not_yet_approved' ) ;
#221 = CARTESIAN_POINT ( 'NONE',  ( 8.750000000000014200, 6.249999999999999100, 3.000000000000000000 ) ) ;
#222 = AXIS2_PLACEMENT_3D ( 'NONE', #89, #108, #219 ) ;
#223 = APPROVAL_DATE_TIME ( #14, #67 ) ;
#224 = EDGE_CURVE ( 'NONE', #75, #212, #173, .T. ) ;
#225 = LINE ( 'NONE', #19, #107 ) ;
#226 = ORIENTED_EDGE ( 'NONE', *, *, #138, .F. ) ;
#227 = AXIS2_PLACEMENT_3D ( 'NONE', #77, #96, #205 ) ;
#228 = PERSON ( 'UNSPECIFIED', 'UNSPECIFIED', 'UNSPECIFIED', ('UNSPECIFIED'), ('UNSPECIFIED'), ('UNSPECIFIED') ) ;
#229 = FACE_OUTER_BOUND ( 'NONE', #73, .T. ) ;
#230 = ORIENTED_EDGE ( 'NONE', *, *, #54, .T. ) ;
#231 = CALENDAR_DATE ( 2017, 31, 1 ) ;
#232 = EDGE_CURVE ( 'NONE', #172, #75, #124, .T. ) ;
#233 = LINE ( 'NONE', #1, #191 ) ;
#234 = VECTOR ( 'NONE', #17, 1000.000000000000000 ) ;
#235 = EDGE_LOOP ( 'NONE', ( #145, #70, #193, #40 ) ) ;
#236 = ORIENTED_EDGE ( 'NONE', *, *, #88, .T. ) ;
#237 = DIRECTION ( 'NONE',  ( 1.000000000000000000, 0.0000000000000000000, 0.0000000000000000000 ) ) ;
ENDSEC;
END-ISO-10303-21;
