ISO-10303-21;
HEADER;
FILE_DESCRIPTION (( 'STEP AP203' ),
    '1' );
FILE_NAME ('Web Model 83470.STEP',
    '2017-02-01T15:22:40',
    ( '' ),
    ( '' ),
    'SwSTEP 2.0',
    'SolidWorks 2016',
    '' );
FILE_SCHEMA (( 'CONFIG_CONTROL_DESIGN' ));
ENDSEC;

DATA;
#1 = FACE_OUTER_BOUND ( 'NONE', #7, .T. ) ;
#2 =( GEOMETRIC_REPRESENTATION_CONTEXT ( 3 ) GLOBAL_UNCERTAINTY_ASSIGNED_CONTEXT ( ( #16 ) ) GLOBAL_UNIT_ASSIGNED_CONTEXT ( ( #137, #9, #76 ) ) REPRESENTATION_CONTEXT ( 'NONE', 'WORKASPACE' ) );
#3 = APPROVAL ( #12, 'UNSPECIFIED' ) ;
#4 = PRODUCT_DEFINITION_FORMATION_WITH_SPECIFIED_SOURCE ( 'ANY', '', #165, .NOT_KNOWN. ) ;
#5 = EDGE_CURVE ( 'NONE', #86, #47, #39, .T. ) ;
#6 = PRODUCT_DEFINITION_SHAPE ( 'NONE', 'NONE',  #80 ) ;
#7 = EDGE_LOOP ( 'NONE', ( #62, #29 ) ) ;
#8 = CARTESIAN_POINT ( 'NONE',  ( 0.0000000000000000000, 0.0000000000000000000, 0.0000000000000000000 ) ) ;
#9 =( NAMED_UNIT ( * ) PLANE_ANGLE_UNIT ( ) SI_UNIT ( $, .RADIAN. ) );
#10 = VERTEX_POINT ( 'NONE', #132 ) ;
#11 = ORIENTED_EDGE ( 'NONE', *, *, #27, .F. ) ;
#12 = APPROVAL_STATUS ( 'not_yet_approved' ) ;
#13 = APPROVAL_DATE_TIME ( #87, #3 ) ;
#14 = CIRCLE ( 'NONE', #112, 7.500000000000000000 ) ;
#15 = ADVANCED_BREP_SHAPE_REPRESENTATION ( 'Web Model 83470', ( #127, #36 ), #2 ) ;
#16 = UNCERTAINTY_MEASURE_WITH_UNIT (LENGTH_MEASURE( 1.000000000000000100E-005 ), #137, 'distance_accuracy_value', 'NONE');
#17 = DATE_AND_TIME ( #161, #157 ) ;
#18 = PLANE ( 'NONE',  #58 ) ;
#19 = CARTESIAN_POINT ( 'NONE',  ( 0.0000000000000000000, 0.0000000000000000000, 3.000000000000000000 ) ) ;
#20 = PERSON_AND_ORGANIZATION ( #134, #32 ) ;
#21 = CARTESIAN_POINT ( 'NONE',  ( 0.0000000000000000000, 0.0000000000000000000, 0.0000000000000000000 ) ) ;
#22 = ORIENTED_EDGE ( 'NONE', *, *, #66, .T. ) ;
#23 = DIRECTION ( 'NONE',  ( -1.000000000000000000, 0.0000000000000000000, 0.0000000000000000000 ) ) ;
#24 = APPLICATION_PROTOCOL_DEFINITION ( 'international standard', 'config_control_design', 1994, #106 ) ;
#25 = APPROVAL_PERSON_ORGANIZATION ( #164, #122, #65 ) ;
#26 = FACE_OUTER_BOUND ( 'NONE', #138, .T. ) ;
#27 = EDGE_CURVE ( 'NONE', #47, #10, #70, .T. ) ;
#28 = PRODUCT_RELATED_PRODUCT_CATEGORY ( 'detail', '', ( #165 ) ) ;
#29 = ORIENTED_EDGE ( 'NONE', *, *, #67, .T. ) ;
#30 = DIRECTION ( 'NONE',  ( 0.0000000000000000000, 0.0000000000000000000, 1.000000000000000000 ) ) ;
#31 = CARTESIAN_POINT ( 'NONE',  ( 7.500000000000000000, 9.184850993605147900E-016, 3.000000000000000000 ) ) ;
#32 = ORGANIZATION ( 'UNSPECIFIED', 'UNSPECIFIED', '' ) ;
#33 = PERSON_AND_ORGANIZATION_ROLE ( 'creator' ) ;
#34 = APPROVAL_ROLE ( '' ) ;
#35 = APPLICATION_CONTEXT ( 'configuration controlled 3d designs of mechanical parts and assemblies' ) ;
#36 = AXIS2_PLACEMENT_3D ( 'NONE', #104, #92, #124 ) ;
#37 = APPROVAL_DATE_TIME ( #79, #122 ) ;
#38 = ORIENTED_EDGE ( 'NONE', *, *, #27, .T. ) ;
#39 = CIRCLE ( 'NONE', #73, 7.500000000000000000 ) ;
#40 = DIRECTION ( 'NONE',  ( 0.0000000000000000000, 0.0000000000000000000, 1.000000000000000000 ) ) ;
#41 = DESIGN_CONTEXT ( 'detailed design', #35, 'design' ) ;
#42 = DIRECTION ( 'NONE',  ( -0.0000000000000000000, -0.0000000000000000000, -1.000000000000000000 ) ) ;
#43 = DATE_TIME_ROLE ( 'creation_date' ) ;
#44 = DIRECTION ( 'NONE',  ( 1.000000000000000000, 0.0000000000000000000, -0.0000000000000000000 ) ) ;
#45 = AXIS2_PLACEMENT_3D ( 'NONE', #51, #88, #52 ) ;
#46 = CALENDAR_DATE ( 2017, 1, 2 ) ;
#47 = VERTEX_POINT ( 'NONE', #31 ) ;
#48 = DATE_AND_TIME ( #78, #81 ) ;
#49 = COORDINATED_UNIVERSAL_TIME_OFFSET ( 5, 0, .BEHIND. ) ;
#50 = CALENDAR_DATE ( 2017, 1, 2 ) ;
#51 = CARTESIAN_POINT ( 'NONE',  ( 0.0000000000000000000, 0.0000000000000000000, 3.000000000000000000 ) ) ;
#52 = DIRECTION ( 'NONE',  ( -1.000000000000000000, 0.0000000000000000000, 0.0000000000000000000 ) ) ;
#53 = PLANE ( 'NONE',  #171 ) ;
#54 = ORIENTED_EDGE ( 'NONE', *, *, #94, .T. ) ;
#55 = APPROVAL_STATUS ( 'not_yet_approved' ) ;
#56 = APPROVAL_PERSON_ORGANIZATION ( #84, #91, #34 ) ;
#57 = ORIENTED_EDGE ( 'NONE', *, *, #110, .T. ) ;
#58 = AXIS2_PLACEMENT_3D ( 'NONE', #19, #135, #44 ) ;
#59 = ORIENTED_EDGE ( 'NONE', *, *, #110, .F. ) ;
#60 = FACE_OUTER_BOUND ( 'NONE', #131, .T. ) ;
#61 = CYLINDRICAL_SURFACE ( 'NONE', #45, 7.500000000000000000 ) ;
#62 = ORIENTED_EDGE ( 'NONE', *, *, #5, .T. ) ;
#63 = DIRECTION ( 'NONE',  ( 1.000000000000000000, 0.0000000000000000000, -0.0000000000000000000 ) ) ;
#64 = CARTESIAN_POINT ( 'NONE',  ( -7.500000000000000000, 0.0000000000000000000, 3.000000000000000000 ) ) ;
#65 = APPROVAL_ROLE ( '' ) ;
#66 = EDGE_CURVE ( 'NONE', #86, #85, #107, .T. ) ;
#67 = EDGE_CURVE ( 'NONE', #47, #86, #71, .T. ) ;
#68 = VECTOR ( 'NONE', #42, 1000.000000000000000 ) ;
#69 = LOCAL_TIME ( 10, 22, 40.00000000000000000, #140 ) ;
#70 = LINE ( 'NONE', #116, #159 ) ;
#71 = CIRCLE ( 'NONE', #100, 7.500000000000000000 ) ;
#72 = DIRECTION ( 'NONE',  ( 1.000000000000000000, 0.0000000000000000000, 0.0000000000000000000 ) ) ;
#73 = AXIS2_PLACEMENT_3D ( 'NONE', #120, #40, #98 ) ;
#74 = DIRECTION ( 'NONE',  ( 0.0000000000000000000, 0.0000000000000000000, 1.000000000000000000 ) ) ;
#75 = APPROVAL_DATE_TIME ( #119, #91 ) ;
#76 =( NAMED_UNIT ( * ) SI_UNIT ( $, .STERADIAN. ) SOLID_ANGLE_UNIT ( ) );
#77 = DATE_TIME_ROLE ( 'classification_date' ) ;
#78 = CALENDAR_DATE ( 2017, 1, 2 ) ;
#79 = DATE_AND_TIME ( #154, #69 ) ;
#80 = PRODUCT_DEFINITION ( 'UNKNOWN', '', #4, #41 ) ;
#81 = LOCAL_TIME ( 10, 22, 40.00000000000000000, #126 ) ;
#82 = CIRCLE ( 'NONE', #156, 7.500000000000000000 ) ;
#83 = CC_DESIGN_PERSON_AND_ORGANIZATION_ASSIGNMENT ( #129, #103, ( #165 ) ) ;
#84 = PERSON_AND_ORGANIZATION ( #134, #32 ) ;
#85 = VERTEX_POINT ( 'NONE', #145 ) ;
#86 = VERTEX_POINT ( 'NONE', #64 ) ;
#87 = DATE_AND_TIME ( #50, #108 ) ;
#88 = DIRECTION ( 'NONE',  ( -0.0000000000000000000, -0.0000000000000000000, -1.000000000000000000 ) ) ;
#89 = DIRECTION ( 'NONE',  ( -0.0000000000000000000, -0.0000000000000000000, -1.000000000000000000 ) ) ;
#90 = APPROVAL_STATUS ( 'not_yet_approved' ) ;
#91 = APPROVAL ( #55, 'UNSPECIFIED' ) ;
#92 = DIRECTION ( 'NONE',  ( 0.0000000000000000000, 0.0000000000000000000, 1.000000000000000000 ) ) ;
#93 = CYLINDRICAL_SURFACE ( 'NONE', #168, 7.500000000000000000 ) ;
#94 = EDGE_CURVE ( 'NONE', #85, #10, #14, .T. ) ;
#95 = CC_DESIGN_PERSON_AND_ORGANIZATION_ASSIGNMENT ( #149, #172, ( #4 ) ) ;
#96 = ORIENTED_EDGE ( 'NONE', *, *, #67, .F. ) ;
#97 = DIRECTION ( 'NONE',  ( 1.000000000000000000, 0.0000000000000000000, 0.0000000000000000000 ) ) ;
#98 = DIRECTION ( 'NONE',  ( 1.000000000000000000, 0.0000000000000000000, 0.0000000000000000000 ) ) ;
#99 = ORIENTED_EDGE ( 'NONE', *, *, #66, .F. ) ;
#100 = AXIS2_PLACEMENT_3D ( 'NONE', #147, #101, #72 ) ;
#101 = DIRECTION ( 'NONE',  ( 0.0000000000000000000, 0.0000000000000000000, 1.000000000000000000 ) ) ;
#102 = ADVANCED_FACE ( 'NONE', ( #160 ), #53, .F. ) ;
#103 = PERSON_AND_ORGANIZATION_ROLE ( 'design_owner' ) ;
#104 = CARTESIAN_POINT ( 'NONE',  ( 0.0000000000000000000, 0.0000000000000000000, 0.0000000000000000000 ) ) ;
#105 = ORIENTED_EDGE ( 'NONE', *, *, #5, .F. ) ;
#106 = APPLICATION_CONTEXT ( 'configuration controlled 3d designs of mechanical parts and assemblies' ) ;
#107 = LINE ( 'NONE', #118, #68 ) ;
#108 = LOCAL_TIME ( 10, 22, 40.00000000000000000, #49 ) ;
#109 = CC_DESIGN_DATE_AND_TIME_ASSIGNMENT ( #48, #77, ( #153 ) ) ;
#110 = EDGE_CURVE ( 'NONE', #10, #85, #82, .T. ) ;
#111 = CC_DESIGN_APPROVAL ( #91, ( #4 ) ) ;
#112 = AXIS2_PLACEMENT_3D ( 'NONE', #8, #144, #97 ) ;
#113 = CC_DESIGN_PERSON_AND_ORGANIZATION_ASSIGNMENT ( #128, #173, ( #153 ) ) ;
#114 = EDGE_LOOP ( 'NONE', ( #152, #59 ) ) ;
#115 = ADVANCED_FACE ( 'NONE', ( #60 ), #61, .T. ) ;
#116 = CARTESIAN_POINT ( 'NONE',  ( 7.500000000000000000, 9.184850993605147900E-016, 3.000000000000000000 ) ) ;
#117 = ADVANCED_FACE ( 'NONE', ( #1 ), #18, .T. ) ;
#118 = CARTESIAN_POINT ( 'NONE',  ( -7.500000000000000000, 0.0000000000000000000, 3.000000000000000000 ) ) ;
#119 = DATE_AND_TIME ( #46, #121 ) ;
#120 = CARTESIAN_POINT ( 'NONE',  ( 0.0000000000000000000, 0.0000000000000000000, 3.000000000000000000 ) ) ;
#121 = LOCAL_TIME ( 10, 22, 40.00000000000000000, #170 ) ;
#122 = APPROVAL ( #90, 'UNSPECIFIED' ) ;
#123 = PERSON_AND_ORGANIZATION_ROLE ( 'design_supplier' ) ;
#124 = DIRECTION ( 'NONE',  ( 1.000000000000000000, 0.0000000000000000000, 0.0000000000000000000 ) ) ;
#125 = CARTESIAN_POINT ( 'NONE',  ( 0.0000000000000000000, 0.0000000000000000000, 3.000000000000000000 ) ) ;
#126 = COORDINATED_UNIVERSAL_TIME_OFFSET ( 5, 0, .BEHIND. ) ;
#127 = MANIFOLD_SOLID_BREP ( 'Extrude1', #142 ) ;
#128 = PERSON_AND_ORGANIZATION ( #134, #32 ) ;
#129 = PERSON_AND_ORGANIZATION ( #134, #32 ) ;
#130 = CC_DESIGN_APPROVAL ( #122, ( #80 ) ) ;
#131 = EDGE_LOOP ( 'NONE', ( #11, #105, #22, #54 ) ) ;
#132 = CARTESIAN_POINT ( 'NONE',  ( 7.500000000000000000, 9.184850993605147900E-016, 0.0000000000000000000 ) ) ;
#133 = DIRECTION ( 'NONE',  ( 1.000000000000000000, 0.0000000000000000000, 0.0000000000000000000 ) ) ;
#134 = PERSON ( 'UNSPECIFIED', 'UNSPECIFIED', 'UNSPECIFIED', ('UNSPECIFIED'), ('UNSPECIFIED'), ('UNSPECIFIED') ) ;
#135 = DIRECTION ( 'NONE',  ( 0.0000000000000000000, 0.0000000000000000000, 1.000000000000000000 ) ) ;
#136 = SECURITY_CLASSIFICATION_LEVEL ( 'unclassified' ) ;
#137 =( LENGTH_UNIT ( ) NAMED_UNIT ( * ) SI_UNIT ( .MILLI., .METRE. ) );
#138 = EDGE_LOOP ( 'NONE', ( #96, #38, #57, #99 ) ) ;
#139 = CC_DESIGN_PERSON_AND_ORGANIZATION_ASSIGNMENT ( #167, #33, ( #80 ) ) ;
#140 = COORDINATED_UNIVERSAL_TIME_OFFSET ( 5, 0, .BEHIND. ) ;
#141 = CC_DESIGN_PERSON_AND_ORGANIZATION_ASSIGNMENT ( #166, #123, ( #4 ) ) ;
#142 = CLOSED_SHELL ( 'NONE', ( #148, #115, #117, #102 ) ) ;
#143 = APPROVAL_ROLE ( '' ) ;
#144 = DIRECTION ( 'NONE',  ( 0.0000000000000000000, 0.0000000000000000000, 1.000000000000000000 ) ) ;
#145 = CARTESIAN_POINT ( 'NONE',  ( -7.500000000000000000, 0.0000000000000000000, 0.0000000000000000000 ) ) ;
#146 = APPROVAL_PERSON_ORGANIZATION ( #20, #3, #143 ) ;
#147 = CARTESIAN_POINT ( 'NONE',  ( 0.0000000000000000000, 0.0000000000000000000, 3.000000000000000000 ) ) ;
#148 = ADVANCED_FACE ( 'NONE', ( #26 ), #93, .T. ) ;
#149 = PERSON_AND_ORGANIZATION ( #134, #32 ) ;
#150 = DIRECTION ( 'NONE',  ( -0.0000000000000000000, -0.0000000000000000000, -1.000000000000000000 ) ) ;
#151 = CC_DESIGN_APPROVAL ( #3, ( #153 ) ) ;
#152 = ORIENTED_EDGE ( 'NONE', *, *, #94, .F. ) ;
#153 = SECURITY_CLASSIFICATION ( '', '', #136 ) ;
#154 = CALENDAR_DATE ( 2017, 1, 2 ) ;
#155 = COORDINATED_UNIVERSAL_TIME_OFFSET ( 5, 0, .BEHIND. ) ;
#156 = AXIS2_PLACEMENT_3D ( 'NONE', #21, #30, #133 ) ;
#157 = LOCAL_TIME ( 10, 22, 40.00000000000000000, #155 ) ;
#158 = SHAPE_DEFINITION_REPRESENTATION ( #6, #15 ) ;
#159 = VECTOR ( 'NONE', #89, 1000.000000000000000 ) ;
#160 = FACE_OUTER_BOUND ( 'NONE', #114, .T. ) ;
#161 = CALENDAR_DATE ( 2017, 1, 2 ) ;
#162 = CC_DESIGN_DATE_AND_TIME_ASSIGNMENT ( #17, #43, ( #80 ) ) ;
#163 = CARTESIAN_POINT ( 'NONE',  ( 0.0000000000000000000, 0.0000000000000000000, 0.0000000000000000000 ) ) ;
#164 = PERSON_AND_ORGANIZATION ( #134, #32 ) ;
#165 = PRODUCT ( 'Web Model 83470', 'Web Model 83470', '', ( #174 ) ) ;
#166 = PERSON_AND_ORGANIZATION ( #134, #32 ) ;
#167 = PERSON_AND_ORGANIZATION ( #134, #32 ) ;
#168 = AXIS2_PLACEMENT_3D ( 'NONE', #125, #150, #23 ) ;
#169 = CC_DESIGN_SECURITY_CLASSIFICATION ( #153, ( #4 ) ) ;
#170 = COORDINATED_UNIVERSAL_TIME_OFFSET ( 5, 0, .BEHIND. ) ;
#171 = AXIS2_PLACEMENT_3D ( 'NONE', #163, #74, #63 ) ;
#172 = PERSON_AND_ORGANIZATION_ROLE ( 'creator' ) ;
#173 = PERSON_AND_ORGANIZATION_ROLE ( 'classification_officer' ) ;
#174 = MECHANICAL_CONTEXT ( 'NONE', #106, 'mechanical' ) ;
#175 = APPLICATION_PROTOCOL_DEFINITION ( 'international standard', 'config_control_design', 1994, #35 ) ;
ENDSEC;
END-ISO-10303-21;
