ISO-10303-21;
HEADER;
FILE_DESCRIPTION (( 'STEP AP203' ),
    '1' );
FILE_NAME ('ISP Flat Parts_16796.step',
    '2020-12-15T21:24:21',
    ( '' ),
    ( '' ),
    'SwSTEP 2.0',
    'SolidWorks 2018',
    '' );
FILE_SCHEMA (( 'CONFIG_CONTROL_DESIGN' ));
ENDSEC;

DATA;
#1 = DIRECTION ( 'NONE',  ( 0.0000000000000000000, 0.0000000000000000000, 1.000000000000000000 ) ) ;
#2 = DATE_AND_TIME ( #157, #126 ) ;
#3 = COORDINATED_UNIVERSAL_TIME_OFFSET ( 5, 0, .BEHIND. ) ;
#4 = EDGE_LOOP ( 'NONE', ( #90, #75, #35, #133 ) ) ;
#5 = CARTESIAN_POINT ( 'NONE',  ( 0.0000000000000000000, 0.0000000000000000000, 1.000000000000000000 ) ) ;
#6 = PERSON_AND_ORGANIZATION ( #171, #132 ) ;
#7 = VERTEX_POINT ( 'NONE', #102 ) ;
#8 = CYLINDRICAL_SURFACE ( 'NONE', #77, 12.69999999999999929 ) ;
#9 =( GEOMETRIC_REPRESENTATION_CONTEXT ( 3 ) GLOBAL_UNCERTAINTY_ASSIGNED_CONTEXT ( ( #167 ) ) GLOBAL_UNIT_ASSIGNED_CONTEXT ( ( #44, #111, #40 ) ) REPRESENTATION_CONTEXT ( 'NONE', 'WORKASPACE' ) );
#10 = DATE_TIME_ROLE ( 'classification_date' ) ;
#11 = EDGE_LOOP ( 'NONE', ( #118, #49, #45, #55 ) ) ;
#12 = PRODUCT_RELATED_PRODUCT_CATEGORY ( 'detail', '', ( #34 ) ) ;
#13 = APPROVAL_ROLE ( '' ) ;
#14 = CARTESIAN_POINT ( 'NONE',  ( 0.0000000000000000000, 0.0000000000000000000, 1.000000000000000000 ) ) ;
#15 = AXIS2_PLACEMENT_3D ( 'NONE', #113, #151, #125 ) ;
#16 = COORDINATED_UNIVERSAL_TIME_OFFSET ( 5, 0, .BEHIND. ) ;
#17 = CARTESIAN_POINT ( 'NONE',  ( 0.0000000000000000000, 0.0000000000000000000, 1.000000000000000000 ) ) ;
#18 = APPLICATION_CONTEXT ( 'configuration controlled 3d designs of mechanical parts and assemblies' ) ;
#19 = DIRECTION ( 'NONE',  ( 1.000000000000000000, 0.0000000000000000000, 0.0000000000000000000 ) ) ;
#20 = AXIS2_PLACEMENT_3D ( 'NONE', #142, #88, #143 ) ;
#21 = COORDINATED_UNIVERSAL_TIME_OFFSET ( 5, 0, .BEHIND. ) ;
#22 = PERSON_AND_ORGANIZATION ( #171, #132 ) ;
#23 = AXIS2_PLACEMENT_3D ( 'NONE', #14, #1, #152 ) ;
#24 = DATE_AND_TIME ( #160, #60 ) ;
#25 = EDGE_LOOP ( 'NONE', ( #59, #39 ) ) ;
#26 = DIRECTION ( 'NONE',  ( 1.000000000000000000, 0.0000000000000000000, -0.0000000000000000000 ) ) ;
#27 = CARTESIAN_POINT ( 'NONE',  ( 12.69999999999999929, 1.555301434917138433E-15, 1.000000000000000000 ) ) ;
#28 = COORDINATED_UNIVERSAL_TIME_OFFSET ( 5, 0, .BEHIND. ) ;
#29 = APPLICATION_PROTOCOL_DEFINITION ( 'international standard', 'config_control_design', 1994, #128 ) ;
#30 = DIRECTION ( 'NONE',  ( -0.0000000000000000000, -0.0000000000000000000, -1.000000000000000000 ) ) ;
#31 = LINE ( 'NONE', #56, #170 ) ;
#32 = EDGE_CURVE ( 'NONE', #120, #7, #173, .T. ) ;
#33 = ORIENTED_EDGE ( 'NONE', *, *, #32, .F. ) ;
#34 = PRODUCT ( 'ISP Flat Parts_16796', 'ISP Flat Parts_16796', '', ( #114 ) ) ;
#35 = ORIENTED_EDGE ( 'NONE', *, *, #99, .T. ) ;
#36 = EDGE_CURVE ( 'NONE', #100, #120, #107, .T. ) ;
#37 = APPROVAL_DATE_TIME ( #138, #155 ) ;
#38 = DATE_AND_TIME ( #48, #84 ) ;
#39 = ORIENTED_EDGE ( 'NONE', *, *, #119, .T. ) ;
#40 =( NAMED_UNIT ( * ) SI_UNIT ( $, .STERADIAN. ) SOLID_ANGLE_UNIT ( ) );
#41 = AXIS2_PLACEMENT_3D ( 'NONE', #17, #87, #62 ) ;
#42 = SHAPE_DEFINITION_REPRESENTATION ( #91, #81 ) ;
#43 = CARTESIAN_POINT ( 'NONE',  ( -12.69999999999999929, 0.0000000000000000000, 1.000000000000000000 ) ) ;
#44 =( LENGTH_UNIT ( ) NAMED_UNIT ( * ) SI_UNIT ( .MILLI., .METRE. ) );
#45 = ORIENTED_EDGE ( 'NONE', *, *, #36, .T. ) ;
#46 = CARTESIAN_POINT ( 'NONE',  ( 0.0000000000000000000, 0.0000000000000000000, 0.0000000000000000000 ) ) ;
#47 = PRODUCT_DEFINITION_FORMATION_WITH_SPECIFIED_SOURCE ( 'ANY', '', #34, .NOT_KNOWN. ) ;
#48 = CALENDAR_DATE ( 2020, 15, 12 ) ;
#49 = ORIENTED_EDGE ( 'NONE', *, *, #166, .F. ) ;
#50 = APPROVAL_STATUS ( 'not_yet_approved' ) ;
#51 = PERSON_AND_ORGANIZATION ( #171, #132 ) ;
#52 = DATE_TIME_ROLE ( 'creation_date' ) ;
#53 = PERSON_AND_ORGANIZATION_ROLE ( 'design_supplier' ) ;
#54 = DESIGN_CONTEXT ( 'detailed design', #128, 'design' ) ;
#55 = ORIENTED_EDGE ( 'NONE', *, *, #32, .T. ) ;
#56 = CARTESIAN_POINT ( 'NONE',  ( 12.69999999999999929, 1.555301434917138433E-15, 1.000000000000000000 ) ) ;
#57 = CC_DESIGN_DATE_AND_TIME_ASSIGNMENT ( #24, #10, ( #117 ) ) ;
#58 = DIRECTION ( 'NONE',  ( -0.0000000000000000000, -0.0000000000000000000, -1.000000000000000000 ) ) ;
#59 = ORIENTED_EDGE ( 'NONE', *, *, #166, .T. ) ;
#60 = LOCAL_TIME ( 16, 24, 21.00000000000000000, #21 ) ;
#61 = DIRECTION ( 'NONE',  ( -1.000000000000000000, 0.0000000000000000000, 0.0000000000000000000 ) ) ;
#62 = DIRECTION ( 'NONE',  ( 1.000000000000000000, 0.0000000000000000000, 0.0000000000000000000 ) ) ;
#63 = CC_DESIGN_APPROVAL ( #155, ( #147 ) ) ;
#64 = PERSON_AND_ORGANIZATION ( #171, #132 ) ;
#65 = DATE_AND_TIME ( #149, #101 ) ;
#66 = CC_DESIGN_PERSON_AND_ORGANIZATION_ASSIGNMENT ( #64, #71, ( #34 ) ) ;
#67 = PERSON_AND_ORGANIZATION_ROLE ( 'creator' ) ;
#68 = CIRCLE ( 'NONE', #109, 12.69999999999999929 ) ;
#69 = ORIENTED_EDGE ( 'NONE', *, *, #99, .F. ) ;
#70 = APPROVAL_STATUS ( 'not_yet_approved' ) ;
#71 = PERSON_AND_ORGANIZATION_ROLE ( 'design_owner' ) ;
#72 = DIRECTION ( 'NONE',  ( 0.0000000000000000000, 0.0000000000000000000, 1.000000000000000000 ) ) ;
#73 = CYLINDRICAL_SURFACE ( 'NONE', #15, 12.69999999999999929 ) ;
#74 = CLOSED_SHELL ( 'NONE', ( #134, #96, #78, #140 ) ) ;
#75 = ORIENTED_EDGE ( 'NONE', *, *, #80, .T. ) ;
#76 = CALENDAR_DATE ( 2020, 15, 12 ) ;
#77 = AXIS2_PLACEMENT_3D ( 'NONE', #129, #127, #61 ) ;
#78 = ADVANCED_FACE ( 'NONE', ( #146 ), #130, .T. ) ;
#79 = PERSON_AND_ORGANIZATION_ROLE ( 'classification_officer' ) ;
#80 = EDGE_CURVE ( 'NONE', #135, #7, #31, .T. ) ;
#81 = ADVANCED_BREP_SHAPE_REPRESENTATION ( 'ISP Flat Parts_16796', ( #116, #136 ), #9 ) ;
#82 = CARTESIAN_POINT ( 'NONE',  ( 0.0000000000000000000, 0.0000000000000000000, 0.0000000000000000000 ) ) ;
#83 = CARTESIAN_POINT ( 'NONE',  ( -12.69999999999999929, 0.0000000000000000000, 0.0000000000000000000 ) ) ;
#84 = LOCAL_TIME ( 16, 24, 21.00000000000000000, #121 ) ;
#85 = CARTESIAN_POINT ( 'NONE',  ( -12.69999999999999929, 0.0000000000000000000, 1.000000000000000000 ) ) ;
#86 = APPROVAL_DATE_TIME ( #38, #115 ) ;
#87 = DIRECTION ( 'NONE',  ( 0.0000000000000000000, 0.0000000000000000000, 1.000000000000000000 ) ) ;
#88 = DIRECTION ( 'NONE',  ( 0.0000000000000000000, 0.0000000000000000000, 1.000000000000000000 ) ) ;
#89 = CC_DESIGN_PERSON_AND_ORGANIZATION_ASSIGNMENT ( #51, #67, ( #147 ) ) ;
#90 = ORIENTED_EDGE ( 'NONE', *, *, #119, .F. ) ;
#91 = PRODUCT_DEFINITION_SHAPE ( 'NONE', 'NONE',  #147 ) ;
#92 = PERSON_AND_ORGANIZATION ( #171, #132 ) ;
#93 = VECTOR ( 'NONE', #30, 1000.000000000000000 ) ;
#94 = PERSON_AND_ORGANIZATION ( #171, #132 ) ;
#95 = PERSON_AND_ORGANIZATION_ROLE ( 'creator' ) ;
#96 = ADVANCED_FACE ( 'NONE', ( #141 ), #8, .T. ) ;
#97 = APPROVAL_PERSON_ORGANIZATION ( #123, #150, #161 ) ;
#98 = DIRECTION ( 'NONE',  ( 0.0000000000000000000, 0.0000000000000000000, 1.000000000000000000 ) ) ;
#99 = EDGE_CURVE ( 'NONE', #7, #120, #68, .T. ) ;
#100 = VERTEX_POINT ( 'NONE', #43 ) ;
#101 = LOCAL_TIME ( 16, 24, 21.00000000000000000, #3 ) ;
#102 = CARTESIAN_POINT ( 'NONE',  ( 12.69999999999999929, 1.555301434917138433E-15, 0.0000000000000000000 ) ) ;
#103 = FACE_OUTER_BOUND ( 'NONE', #156, .T. ) ;
#104 = CIRCLE ( 'NONE', #41, 12.69999999999999929 ) ;
#105 = CC_DESIGN_DATE_AND_TIME_ASSIGNMENT ( #2, #52, ( #147 ) ) ;
#106 = CC_DESIGN_PERSON_AND_ORGANIZATION_ASSIGNMENT ( #94, #53, ( #47 ) ) ;
#107 = LINE ( 'NONE', #85, #93 ) ;
#108 = SECURITY_CLASSIFICATION_LEVEL ( 'unclassified' ) ;
#109 = AXIS2_PLACEMENT_3D ( 'NONE', #82, #72, #19 ) ;
#110 = APPROVAL_PERSON_ORGANIZATION ( #148, #115, #137 ) ;
#111 =( NAMED_UNIT ( * ) PLANE_ANGLE_UNIT ( ) SI_UNIT ( $, .RADIAN. ) );
#112 = APPROVAL_PERSON_ORGANIZATION ( #6, #155, #13 ) ;
#113 = CARTESIAN_POINT ( 'NONE',  ( 0.0000000000000000000, 0.0000000000000000000, 1.000000000000000000 ) ) ;
#114 = MECHANICAL_CONTEXT ( 'NONE', #18, 'mechanical' ) ;
#115 = APPROVAL ( #159, 'UNSPECIFIED' ) ;
#116 = MANIFOLD_SOLID_BREP ( 'Boss-Extrude1', #74 ) ;
#117 = SECURITY_CLASSIFICATION ( '', '', #108 ) ;
#118 = ORIENTED_EDGE ( 'NONE', *, *, #80, .F. ) ;
#119 = EDGE_CURVE ( 'NONE', #135, #100, #139, .T. ) ;
#120 = VERTEX_POINT ( 'NONE', #83 ) ;
#121 = COORDINATED_UNIVERSAL_TIME_OFFSET ( 5, 0, .BEHIND. ) ;
#122 = CC_DESIGN_APPROVAL ( #115, ( #47 ) ) ;
#123 = PERSON_AND_ORGANIZATION ( #171, #132 ) ;
#124 = CC_DESIGN_PERSON_AND_ORGANIZATION_ASSIGNMENT ( #22, #79, ( #117 ) ) ;
#125 = DIRECTION ( 'NONE',  ( -1.000000000000000000, 0.0000000000000000000, 0.0000000000000000000 ) ) ;
#126 = LOCAL_TIME ( 16, 24, 21.00000000000000000, #16 ) ;
#127 = DIRECTION ( 'NONE',  ( -0.0000000000000000000, -0.0000000000000000000, -1.000000000000000000 ) ) ;
#128 = APPLICATION_CONTEXT ( 'configuration controlled 3d designs of mechanical parts and assemblies' ) ;
#129 = CARTESIAN_POINT ( 'NONE',  ( 0.0000000000000000000, 0.0000000000000000000, 1.000000000000000000 ) ) ;
#130 = PLANE ( 'NONE',  #164 ) ;
#131 = DIRECTION ( 'NONE',  ( 0.0000000000000000000, 0.0000000000000000000, 1.000000000000000000 ) ) ;
#132 = ORGANIZATION ( 'UNSPECIFIED', 'UNSPECIFIED', '' ) ;
#133 = ORIENTED_EDGE ( 'NONE', *, *, #36, .F. ) ;
#134 = ADVANCED_FACE ( 'NONE', ( #153 ), #73, .T. ) ;
#135 = VERTEX_POINT ( 'NONE', #27 ) ;
#136 = AXIS2_PLACEMENT_3D ( 'NONE', #163, #98, #175 ) ;
#137 = APPROVAL_ROLE ( '' ) ;
#138 = DATE_AND_TIME ( #76, #168 ) ;
#139 = CIRCLE ( 'NONE', #23, 12.69999999999999929 ) ;
#140 = ADVANCED_FACE ( 'NONE', ( #103 ), #154, .F. ) ;
#141 = FACE_OUTER_BOUND ( 'NONE', #11, .T. ) ;
#142 = CARTESIAN_POINT ( 'NONE',  ( 0.0000000000000000000, 0.0000000000000000000, 0.0000000000000000000 ) ) ;
#143 = DIRECTION ( 'NONE',  ( 1.000000000000000000, 0.0000000000000000000, -0.0000000000000000000 ) ) ;
#144 = CC_DESIGN_PERSON_AND_ORGANIZATION_ASSIGNMENT ( #92, #95, ( #47 ) ) ;
#145 = AXIS2_PLACEMENT_3D ( 'NONE', #46, #131, #165 ) ;
#146 = FACE_OUTER_BOUND ( 'NONE', #25, .T. ) ;
#147 = PRODUCT_DEFINITION ( 'UNKNOWN', '', #47, #54 ) ;
#148 = PERSON_AND_ORGANIZATION ( #171, #132 ) ;
#149 = CALENDAR_DATE ( 2020, 15, 12 ) ;
#150 = APPROVAL ( #50, 'UNSPECIFIED' ) ;
#151 = DIRECTION ( 'NONE',  ( -0.0000000000000000000, -0.0000000000000000000, -1.000000000000000000 ) ) ;
#152 = DIRECTION ( 'NONE',  ( 1.000000000000000000, 0.0000000000000000000, 0.0000000000000000000 ) ) ;
#153 = FACE_OUTER_BOUND ( 'NONE', #4, .T. ) ;
#154 = PLANE ( 'NONE',  #20 ) ;
#155 = APPROVAL ( #70, 'UNSPECIFIED' ) ;
#156 = EDGE_LOOP ( 'NONE', ( #33, #69 ) ) ;
#157 = CALENDAR_DATE ( 2020, 15, 12 ) ;
#158 = APPROVAL_DATE_TIME ( #65, #150 ) ;
#159 = APPROVAL_STATUS ( 'not_yet_approved' ) ;
#160 = CALENDAR_DATE ( 2020, 15, 12 ) ;
#161 = APPROVAL_ROLE ( '' ) ;
#162 = DIRECTION ( 'NONE',  ( 0.0000000000000000000, 0.0000000000000000000, 1.000000000000000000 ) ) ;
#163 = CARTESIAN_POINT ( 'NONE',  ( 0.0000000000000000000, 0.0000000000000000000, 0.0000000000000000000 ) ) ;
#164 = AXIS2_PLACEMENT_3D ( 'NONE', #5, #162, #26 ) ;
#165 = DIRECTION ( 'NONE',  ( 1.000000000000000000, 0.0000000000000000000, 0.0000000000000000000 ) ) ;
#166 = EDGE_CURVE ( 'NONE', #100, #135, #104, .T. ) ;
#167 = UNCERTAINTY_MEASURE_WITH_UNIT (LENGTH_MEASURE( 1.000000000000000082E-05 ), #44, 'distance_accuracy_value', 'NONE');
#168 = LOCAL_TIME ( 16, 24, 21.00000000000000000, #28 ) ;
#169 = CC_DESIGN_APPROVAL ( #150, ( #117 ) ) ;
#170 = VECTOR ( 'NONE', #58, 1000.000000000000000 ) ;
#171 = PERSON ( 'UNSPECIFIED', 'UNSPECIFIED', 'UNSPECIFIED', ('UNSPECIFIED'), ('UNSPECIFIED'), ('UNSPECIFIED') ) ;
#172 = CC_DESIGN_SECURITY_CLASSIFICATION ( #117, ( #47 ) ) ;
#173 = CIRCLE ( 'NONE', #145, 12.69999999999999929 ) ;
#174 = APPLICATION_PROTOCOL_DEFINITION ( 'international standard', 'config_control_design', 1994, #18 ) ;
#175 = DIRECTION ( 'NONE',  ( 1.000000000000000000, 0.0000000000000000000, 0.0000000000000000000 ) ) ;
ENDSEC;
END-ISO-10303-21;
