ISO-10303-21;
HEADER;
FILE_DESCRIPTION (( 'STEP AP214' ),
    '1' );
FILE_NAME ('3425-E0W.STEP',
    '2009-12-21T16:58:51',
    ( ' ' ),
    ( ' ' ),
    'SwSTEP 2.0',
    'SolidWorks 2009',
    '' );
FILE_SCHEMA (( 'AUTOMOTIVE_DESIGN' ));
ENDSEC;

DATA;
#1 = DIRECTION ( 'NONE',  ( 1.000000000000000000, 0.0000000000000000000, 0.0000000000000000000 ) ) ;
#2 = SURFACE_STYLE_FILL_AREA ( #3 ) ;
#3 = FILL_AREA_STYLE ('',( #23 ) ) ;
#4 = CIRCLE ( 'NONE', #46, 2.999999999999999100 ) ;
#5 = DIRECTION ( 'NONE',  ( -0.0000000000000000000, -0.0000000000000000000, 1.000000000000000000 ) ) ;
#6 = VECTOR ( 'NONE', #5, 1000.000000000000000 ) ;
#7 = CARTESIAN_POINT ( 'NONE',  ( -2.999999999999999100, 3.673819061467130800E-016, 8.832197093307417600 ) ) ;
#8 = LINE ( 'NONE', #7, #6 ) ;
#9 = PRESENTATION_LAYER_ASSIGNMENT (  '', '', ( #72 ) ) ;
#10 = SURFACE_STYLE_FILL_AREA ( #15 ) ;
#11 =( NAMED_UNIT ( * ) PLANE_ANGLE_UNIT ( ) SI_UNIT ( $, .RADIAN. ) );
#12 = MECHANICAL_DESIGN_GEOMETRIC_PRESENTATION_REPRESENTATION (  '', ( #51 ), #14 ) ;
#13 = PRESENTATION_LAYER_ASSIGNMENT (  '', '', ( #51 ) ) ;
#14 =( GEOMETRIC_REPRESENTATION_CONTEXT ( 3 ) GLOBAL_UNCERTAINTY_ASSIGNED_CONTEXT ( ( #54 ) ) GLOBAL_UNIT_ASSIGNED_CONTEXT ( ( #77, #25, #22 ) ) REPRESENTATION_CONTEXT ( 'NONE', 'WORKASPACE' ) );
#15 = FILL_AREA_STYLE ('',( #71 ) ) ;
#16 = CARTESIAN_POINT ( 'NONE',  ( 0.0000000000000000000, 0.0000000000000000000, 13.16504382287809300 ) ) ;
#17 = AXIS2_PLACEMENT_3D ( 'NONE', #16, #33, #32 ) ;
#18 = CIRCLE ( 'NONE', #17, 12.35000000000000000 ) ;
#19 = SURFACE_STYLE_USAGE ( .BOTH. , #48 ) ;
#20 = COLOUR_RGB ( '',0.7960784313725489700, 0.8235294117647058400, 0.9372549019607843100 ) ;
#21 = UNCERTAINTY_MEASURE_WITH_UNIT (LENGTH_MEASURE( 1.000000000000000100E-005 ), #39, 'distance_accuracy_value', 'NONE');
#22 =( NAMED_UNIT ( * ) SI_UNIT ( $, .STERADIAN. ) SOLID_ANGLE_UNIT ( ) );
#23 = FILL_AREA_STYLE_COLOUR ( '', #24 ) ;
#24 = COLOUR_RGB ( '',0.9568627450980391500, 0.9490196078431372100, 0.9607843137254902200 ) ;
#25 =( NAMED_UNIT ( * ) PLANE_ANGLE_UNIT ( ) SI_UNIT ( $, .RADIAN. ) );
#26 = MECHANICAL_DESIGN_GEOMETRIC_PRESENTATION_REPRESENTATION (  '', ( #72 ), #53 ) ;
#27 = VECTOR ( 'NONE', #65, 1000.000000000000000 ) ;
#28 = CARTESIAN_POINT ( 'NONE',  ( 2.999999999999999100, 0.0000000000000000000, 8.832197093307417600 ) ) ;
#29 = LINE ( 'NONE', #28, #27 ) ;
#30 = FILL_AREA_STYLE_COLOUR ( '', #63 ) ;
#31 = CARTESIAN_POINT ( 'NONE',  ( 0.0000000000000000000, 7.561944234853180000E-016, 0.8150438228780934000 ) ) ;
#32 = DIRECTION ( 'NONE',  ( 0.0000000000000000000, 0.0000000000000000000, -1.000000000000000000 ) ) ;
#33 = DIRECTION ( 'NONE',  ( 1.000000000000000000, 0.0000000000000000000, 0.0000000000000000000 ) ) ;
#34 = CARTESIAN_POINT ( 'NONE',  ( 0.0000000000000000000, 0.0000000000000000000, -1.184956177121908800 ) ) ;
#35 = AXIS2_PLACEMENT_3D ( 'NONE', #34, #70, #69 ) ;
#36 = CIRCLE ( 'NONE', #35, 2.999999999999999100 ) ;
#37 = PRESENTATION_STYLE_ASSIGNMENT (( #19 ) ) ;
#38 = DIRECTION ( 'NONE',  ( 0.0000000000000000000, -0.0000000000000000000, 1.000000000000000000 ) ) ;
#39 =( LENGTH_UNIT ( ) NAMED_UNIT ( * ) SI_UNIT ( .MILLI., .METRE. ) );
#40 = CARTESIAN_POINT ( 'NONE',  ( -2.999999999999999100, 3.673819061467130800E-016, 1.184956177121908800 ) ) ;
#41 = SURFACE_STYLE_USAGE ( .BOTH. , #42 ) ;
#42 = SURFACE_SIDE_STYLE ('',( #2 ) ) ;
#43 = DIRECTION ( 'NONE',  ( 1.000000000000000000, 0.0000000000000000000, 0.0000000000000000000 ) ) ;
#44 = DIRECTION ( 'NONE',  ( -0.0000000000000000000, -0.0000000000000000000, 1.000000000000000000 ) ) ;
#45 = CARTESIAN_POINT ( 'NONE',  ( 0.0000000000000000000, 0.0000000000000000000, 1.184956177121908800 ) ) ;
#46 = AXIS2_PLACEMENT_3D ( 'NONE', #45, #44, #43 ) ;
#47 = CARTESIAN_POINT ( 'NONE',  ( 0.0000000000000000000, 3.000000000000001800, 1.184956177121908600 ) ) ;
#48 = SURFACE_SIDE_STYLE ('',( #10 ) ) ;
#49 = FACE_OUTER_BOUND ( 'NONE', #199, .T. ) ;
#50 = AXIS2_PLACEMENT_3D ( 'NONE', #76, #75, #74 ) ;
#51 = STYLED_ITEM ( 'NONE', ( #37 ), #197 ) ;
#52 =( NAMED_UNIT ( * ) SI_UNIT ( $, .STERADIAN. ) SOLID_ANGLE_UNIT ( ) );
#53 =( GEOMETRIC_REPRESENTATION_CONTEXT ( 3 ) GLOBAL_UNCERTAINTY_ASSIGNED_CONTEXT ( ( #21 ) ) GLOBAL_UNIT_ASSIGNED_CONTEXT ( ( #39, #11, #52 ) ) REPRESENTATION_CONTEXT ( 'NONE', 'WORKASPACE' ) );
#54 = UNCERTAINTY_MEASURE_WITH_UNIT (LENGTH_MEASURE( 1.000000000000000100E-005 ), #77, 'distance_accuracy_value', 'NONE');
#55 = MECHANICAL_DESIGN_GEOMETRIC_PRESENTATION_REPRESENTATION (  '', ( #57 ), #134 ) ;
#56 = PRESENTATION_LAYER_ASSIGNMENT (  '', '', ( #57 ) ) ;
#57 = STYLED_ITEM ( 'NONE', ( #58 ), #229 ) ;
#58 = PRESENTATION_STYLE_ASSIGNMENT (( #59 ) ) ;
#59 = SURFACE_STYLE_USAGE ( .BOTH. , #60 ) ;
#60 = SURFACE_SIDE_STYLE ('',( #61 ) ) ;
#61 = SURFACE_STYLE_FILL_AREA ( #62 ) ;
#62 = FILL_AREA_STYLE ('',( #30 ) ) ;
#63 = COLOUR_RGB ( '',0.9568627450980391500, 0.9490196078431372100, 0.9607843137254902200 ) ;
#64 = FACE_OUTER_BOUND ( 'NONE', #246, .T. ) ;
#65 = DIRECTION ( 'NONE',  ( -0.0000000000000000000, -0.0000000000000000000, 1.000000000000000000 ) ) ;
#66 = CYLINDRICAL_SURFACE ( 'NONE', #50, 2.999999999999999100 ) ;
#67 = CARTESIAN_POINT ( 'NONE',  ( -2.999999999999999100, 3.673819061467130800E-016, -1.184956177121908800 ) ) ;
#68 = CARTESIAN_POINT ( 'NONE',  ( 2.999999999999999100, 0.0000000000000000000, -1.184956177121908800 ) ) ;
#69 = DIRECTION ( 'NONE',  ( 1.000000000000000000, 0.0000000000000000000, 0.0000000000000000000 ) ) ;
#70 = DIRECTION ( 'NONE',  ( -0.0000000000000000000, -0.0000000000000000000, 1.000000000000000000 ) ) ;
#71 = FILL_AREA_STYLE_COLOUR ( '', #20 ) ;
#72 = STYLED_ITEM ( 'NONE', ( #73 ), #198 ) ;
#73 = PRESENTATION_STYLE_ASSIGNMENT (( #41 ) ) ;
#74 = DIRECTION ( 'NONE',  ( 1.000000000000000000, 0.0000000000000000000, 0.0000000000000000000 ) ) ;
#75 = DIRECTION ( 'NONE',  ( -0.0000000000000000000, -0.0000000000000000000, 1.000000000000000000 ) ) ;
#76 = CARTESIAN_POINT ( 'NONE',  ( 0.0000000000000000000, 0.0000000000000000000, 8.832197093307417600 ) ) ;
#77 =( LENGTH_UNIT ( ) NAMED_UNIT ( * ) SI_UNIT ( .MILLI., .METRE. ) );
#78 = SURFACE_SIDE_STYLE ('',( #79 ) ) ;
#79 = SURFACE_STYLE_FILL_AREA ( #80 ) ;
#80 = FILL_AREA_STYLE ('',( #111 ) ) ;
#81 = COLOUR_RGB ( '',0.9568627450980391500, 0.9490196078431372100, 0.9607843137254902200 ) ;
#82 = UNCERTAINTY_MEASURE_WITH_UNIT (LENGTH_MEASURE( 1.000000000000000100E-005 ), #140, 'distance_accuracy_value', 'NONE');
#83 = UNCERTAINTY_MEASURE_WITH_UNIT (LENGTH_MEASURE( 1.000000000000000100E-005 ), #86, 'distance_accuracy_value', 'NONE');
#84 =( NAMED_UNIT ( * ) SI_UNIT ( $, .STERADIAN. ) SOLID_ANGLE_UNIT ( ) );
#85 =( NAMED_UNIT ( * ) PLANE_ANGLE_UNIT ( ) SI_UNIT ( $, .RADIAN. ) );
#86 =( LENGTH_UNIT ( ) NAMED_UNIT ( * ) SI_UNIT ( .MILLI., .METRE. ) );
#87 = DIRECTION ( 'NONE',  ( 1.000000000000000000, 0.0000000000000000000, 0.0000000000000000000 ) ) ;
#88 = DIRECTION ( 'NONE',  ( -0.0000000000000000000, -0.0000000000000000000, 1.000000000000000000 ) ) ;
#89 = CARTESIAN_POINT ( 'NONE',  ( 0.0000000000000000000, 0.0000000000000000000, 1.184956177121908800 ) ) ;
#90 = AXIS2_PLACEMENT_3D ( 'NONE', #89, #88, #87 ) ;
#91 = CIRCLE ( 'NONE', #90, 2.999999999999999100 ) ;
#92 = PRESENTATION_STYLE_ASSIGNMENT (( #93 ) ) ;
#93 = SURFACE_STYLE_USAGE ( .BOTH. , #94 ) ;
#94 = SURFACE_SIDE_STYLE ('',( #95 ) ) ;
#95 = SURFACE_STYLE_FILL_AREA ( #96 ) ;
#96 = FILL_AREA_STYLE ('',( #97 ) ) ;
#97 = FILL_AREA_STYLE_COLOUR ( '', #98 ) ;
#98 = COLOUR_RGB ( '',0.9568627450980391500, 0.9490196078431372100, 0.9607843137254902200 ) ;
#99 = DIRECTION ( 'NONE',  ( -1.224606353822377300E-016, -1.000000000000000000, 0.0000000000000000000 ) ) ;
#100 = DIRECTION ( 'NONE',  ( -1.000000000000000000, 1.224606353822377300E-016, 0.0000000000000000000 ) ) ;
#101 = AXIS2_PLACEMENT_3D ( 'NONE', #130, #100, #99 ) ;
#102 = CIRCLE ( 'NONE', #101, 12.35000000000000000 ) ;
#103 =( NAMED_UNIT ( * ) PLANE_ANGLE_UNIT ( ) SI_UNIT ( $, .RADIAN. ) );
#104 = UNCERTAINTY_MEASURE_WITH_UNIT (LENGTH_MEASURE( 1.000000000000000100E-005 ), #107, 'distance_accuracy_value', 'NONE');
#105 =( NAMED_UNIT ( * ) SI_UNIT ( $, .STERADIAN. ) SOLID_ANGLE_UNIT ( ) );
#106 =( NAMED_UNIT ( * ) PLANE_ANGLE_UNIT ( ) SI_UNIT ( $, .RADIAN. ) );
#107 =( LENGTH_UNIT ( ) NAMED_UNIT ( * ) SI_UNIT ( .MILLI., .METRE. ) );
#108 = MECHANICAL_DESIGN_GEOMETRIC_PRESENTATION_REPRESENTATION (  '', ( #110 ), #127 ) ;
#109 = PRESENTATION_LAYER_ASSIGNMENT (  '', '', ( #110 ) ) ;
#110 = STYLED_ITEM ( 'NONE', ( #92 ), #257 ) ;
#111 = FILL_AREA_STYLE_COLOUR ( '', #81 ) ;
#112 = DIRECTION ( 'NONE',  ( 1.000000000000000000, 0.0000000000000000000, 0.0000000000000000000 ) ) ;
#113 = DIRECTION ( 'NONE',  ( -0.0000000000000000000, -0.0000000000000000000, 1.000000000000000000 ) ) ;
#114 = CIRCLE ( 'NONE', #148, 2.999999999999999100 ) ;
#115 = FACE_OUTER_BOUND ( 'NONE', #259, .T. ) ;
#116 = CARTESIAN_POINT ( 'NONE',  ( -3.673819061467134200E-016, -3.000000000000001800, 1.184956177121908600 ) ) ;
#117 = UNCERTAINTY_MEASURE_WITH_UNIT (LENGTH_MEASURE( 1.000000000000000100E-005 ), #131, 'distance_accuracy_value', 'NONE');
#118 = AXIS2_PLACEMENT_3D ( 'NONE', #120, #119, #146 ) ;
#119 = DIRECTION ( 'NONE',  ( -0.0000000000000000000, -0.0000000000000000000, 1.000000000000000000 ) ) ;
#120 = CARTESIAN_POINT ( 'NONE',  ( 0.0000000000000000000, 0.0000000000000000000, 8.832197093307417600 ) ) ;
#121 = CARTESIAN_POINT ( 'NONE',  ( 2.999999999999999100, 0.0000000000000000000, 1.184956177121908800 ) ) ;
#122 = DIRECTION ( 'NONE',  ( 0.0000000000000000000, 1.000000000000000000, 0.0000000000000000000 ) ) ;
#123 = DIRECTION ( 'NONE',  ( -1.000000000000000000, 0.0000000000000000000, 0.0000000000000000000 ) ) ;
#124 = CARTESIAN_POINT ( 'NONE',  ( 0.0000000000000000000, 0.0000000000000000000, 13.16504382287809300 ) ) ;
#125 = AXIS2_PLACEMENT_3D ( 'NONE', #124, #123, #122 ) ;
#126 = SPHERICAL_SURFACE ( 'NONE', #125, 12.35000000000000000 ) ;
#127 =( GEOMETRIC_REPRESENTATION_CONTEXT ( 3 ) GLOBAL_UNCERTAINTY_ASSIGNED_CONTEXT ( ( #104 ) ) GLOBAL_UNIT_ASSIGNED_CONTEXT ( ( #107, #106, #105 ) ) REPRESENTATION_CONTEXT ( 'NONE', 'WORKASPACE' ) );
#128 = CYLINDRICAL_SURFACE ( 'NONE', #118, 2.999999999999999100 ) ;
#129 = CIRCLE ( 'NONE', #139, 2.999999999999999100 ) ;
#130 = CARTESIAN_POINT ( 'NONE',  ( 0.0000000000000000000, 0.0000000000000000000, 13.16504382287809300 ) ) ;
#131 =( LENGTH_UNIT ( ) NAMED_UNIT ( * ) SI_UNIT ( .MILLI., .METRE. ) );
#132 = DIRECTION ( 'NONE',  ( -1.000000000000000000, 0.0000000000000000000, 0.0000000000000000000 ) ) ;
#133 = CARTESIAN_POINT ( 'NONE',  ( 0.0000000000000000000, 0.0000000000000000000, 13.16504382287809300 ) ) ;
#134 =( GEOMETRIC_REPRESENTATION_CONTEXT ( 3 ) GLOBAL_UNCERTAINTY_ASSIGNED_CONTEXT ( ( #117 ) ) GLOBAL_UNIT_ASSIGNED_CONTEXT ( ( #131, #103, #147 ) ) REPRESENTATION_CONTEXT ( 'NONE', 'WORKASPACE' ) );
#135 = FACE_OUTER_BOUND ( 'NONE', #192, .T. ) ;
#136 = DIRECTION ( 'NONE',  ( 1.000000000000000000, 0.0000000000000000000, 0.0000000000000000000 ) ) ;
#137 = DIRECTION ( 'NONE',  ( -0.0000000000000000000, -0.0000000000000000000, 1.000000000000000000 ) ) ;
#138 = CARTESIAN_POINT ( 'NONE',  ( 0.0000000000000000000, 0.0000000000000000000, 1.184956177121908800 ) ) ;
#139 = AXIS2_PLACEMENT_3D ( 'NONE', #138, #137, #136 ) ;
#140 =( LENGTH_UNIT ( ) NAMED_UNIT ( * ) SI_UNIT ( .MILLI., .METRE. ) );
#141 = STYLED_ITEM ( 'NONE', ( #142 ), #238 ) ;
#142 = PRESENTATION_STYLE_ASSIGNMENT (( #143 ) ) ;
#143 = SURFACE_STYLE_USAGE ( .BOTH. , #78 ) ;
#144 = MECHANICAL_DESIGN_GEOMETRIC_PRESENTATION_REPRESENTATION (  '', ( #141 ), #157 ) ;
#145 = PRESENTATION_LAYER_ASSIGNMENT (  '', '', ( #141 ) ) ;
#146 = DIRECTION ( 'NONE',  ( 1.000000000000000000, 0.0000000000000000000, 0.0000000000000000000 ) ) ;
#147 =( NAMED_UNIT ( * ) SI_UNIT ( $, .STERADIAN. ) SOLID_ANGLE_UNIT ( ) );
#148 = AXIS2_PLACEMENT_3D ( 'NONE', #155, #113, #112 ) ;
#149 = ADVANCED_BREP_SHAPE_REPRESENTATION ( '3425-E0W', ( #197, #171 ), #150 ) ;
#150 =( GEOMETRIC_REPRESENTATION_CONTEXT ( 3 ) GLOBAL_UNCERTAINTY_ASSIGNED_CONTEXT ( ( #83 ) ) GLOBAL_UNIT_ASSIGNED_CONTEXT ( ( #86, #85, #84 ) ) REPRESENTATION_CONTEXT ( 'NONE', 'WORKASPACE' ) );
#151 =( NAMED_UNIT ( * ) SI_UNIT ( $, .STERADIAN. ) SOLID_ANGLE_UNIT ( ) );
#152 =( NAMED_UNIT ( * ) PLANE_ANGLE_UNIT ( ) SI_UNIT ( $, .RADIAN. ) );
#153 = AXIS2_PLACEMENT_3D ( 'NONE', #133, #132, #156 ) ;
#154 = SPHERICAL_SURFACE ( 'NONE', #153, 12.35000000000000000 ) ;
#155 = CARTESIAN_POINT ( 'NONE',  ( 0.0000000000000000000, 0.0000000000000000000, -1.184956177121908800 ) ) ;
#156 = DIRECTION ( 'NONE',  ( 0.0000000000000000000, 1.000000000000000000, 0.0000000000000000000 ) ) ;
#157 =( GEOMETRIC_REPRESENTATION_CONTEXT ( 3 ) GLOBAL_UNCERTAINTY_ASSIGNED_CONTEXT ( ( #82 ) ) GLOBAL_UNIT_ASSIGNED_CONTEXT ( ( #140, #152, #151 ) ) REPRESENTATION_CONTEXT ( 'NONE', 'WORKASPACE' ) );
#158 = SURFACE_STYLE_USAGE ( .BOTH. , #167 ) ;
#159 = CARTESIAN_POINT ( 'NONE',  ( 0.0000000000000000000, 0.0000000000000000000, 0.0000000000000000000 ) ) ;
#160 = PRESENTATION_LAYER_ASSIGNMENT (  '', '', ( #163 ) ) ;
#161 = APPLICATION_CONTEXT ( 'automotive_design' ) ;
#162 = PRODUCT ( '3425-E0W', '3425-E0W', '', ( #164 ) ) ;
#163 = STYLED_ITEM ( 'NONE', ( #170 ), #149 ) ;
#164 = PRODUCT_CONTEXT ( 'NONE', #175, 'mechanical' ) ;
#165 = APPLICATION_PROTOCOL_DEFINITION ( 'draft international standard', 'automotive_design', 1998, #175 ) ;
#166 =( NAMED_UNIT ( * ) SI_UNIT ( $, .STERADIAN. ) SOLID_ANGLE_UNIT ( ) );
#167 = SURFACE_SIDE_STYLE ('',( #185 ) ) ;
#168 = MECHANICAL_DESIGN_GEOMETRIC_PRESENTATION_REPRESENTATION (  '', ( #163 ), #172 ) ;
#169 = SHAPE_DEFINITION_REPRESENTATION ( #182, #149 ) ;
#170 = PRESENTATION_STYLE_ASSIGNMENT (( #158 ) ) ;
#171 = AXIS2_PLACEMENT_3D ( 'NONE', #159, #187, #186 ) ;
#172 =( GEOMETRIC_REPRESENTATION_CONTEXT ( 3 ) GLOBAL_UNCERTAINTY_ASSIGNED_CONTEXT ( ( #176 ) ) GLOBAL_UNIT_ASSIGNED_CONTEXT ( ( #184, #173, #166 ) ) REPRESENTATION_CONTEXT ( 'NONE', 'WORKASPACE' ) );
#173 =( NAMED_UNIT ( * ) PLANE_ANGLE_UNIT ( ) SI_UNIT ( $, .RADIAN. ) );
#174 = FILL_AREA_STYLE_COLOUR ( '', #188 ) ;
#175 = APPLICATION_CONTEXT ( 'automotive_design' ) ;
#176 = UNCERTAINTY_MEASURE_WITH_UNIT (LENGTH_MEASURE( 1.000000000000000100E-005 ), #184, 'distance_accuracy_value', 'NONE');
#177 = PRODUCT_DEFINITION_FORMATION_WITH_SPECIFIED_SOURCE ( 'ANY', '', #162, .NOT_KNOWN. ) ;
#178 = PRODUCT_DEFINITION ( 'UNKNOWN', '', #177, #179 ) ;
#179 = PRODUCT_DEFINITION_CONTEXT ( 'detailed design', #161, 'design' ) ;
#180 = APPLICATION_PROTOCOL_DEFINITION ( 'draft international standard', 'automotive_design', 1998, #161 ) ;
#181 = FILL_AREA_STYLE ('',( #174 ) ) ;
#182 = PRODUCT_DEFINITION_SHAPE ( 'NONE', 'NONE',  #178 ) ;
#183 = PRODUCT_RELATED_PRODUCT_CATEGORY ( 'part', '', ( #162 ) ) ;
#184 =( LENGTH_UNIT ( ) NAMED_UNIT ( * ) SI_UNIT ( .MILLI., .METRE. ) );
#185 = SURFACE_STYLE_FILL_AREA ( #181 ) ;
#186 = DIRECTION ( 'NONE',  ( 1.000000000000000000, 0.0000000000000000000, 0.0000000000000000000 ) ) ;
#187 = DIRECTION ( 'NONE',  ( 0.0000000000000000000, 0.0000000000000000000, 1.000000000000000000 ) ) ;
#188 = COLOUR_RGB ( '',0.7960784313725489700, 0.8235294117647058400, 0.9372549019607843100 ) ;
#189 = ORIENTED_EDGE ( 'NONE', *, *, #190, .T. ) ;
#190 = EDGE_CURVE ( 'NONE', #221, #235, #232, .T. ) ;
#191 = EDGE_LOOP ( 'NONE', ( #234, #258 ) ) ;
#192 = EDGE_LOOP ( 'NONE', ( #255, #239, #240, #189 ) ) ;
#193 = ADVANCED_FACE ( 'NONE', ( #233 ), #243, .F. ) ;
#194 = ORIENTED_EDGE ( 'NONE', *, *, #222, .F. ) ;
#195 = ORIENTED_EDGE ( 'NONE', *, *, #261, .T. ) ;
#196 = ORIENTED_EDGE ( 'NONE', *, *, #237, .T. ) ;
#197 = MANIFOLD_SOLID_BREP ( 'NONE', #251 ) ;
#198 = ADVANCED_FACE ( 'NONE', ( #49 ), #66, .T. ) ;
#199 = EDGE_LOOP ( 'NONE', ( #200, #220, #223, #248, #247 ) ) ;
#200 = ORIENTED_EDGE ( 'NONE', *, *, #201, .T. ) ;
#201 = EDGE_CURVE ( 'NONE', #202, #203, #36, .T. ) ;
#202 = VERTEX_POINT ( 'NONE', #68 ) ;
#203 = VERTEX_POINT ( 'NONE', #67 ) ;
#204 = UNCERTAINTY_MEASURE_WITH_UNIT (LENGTH_MEASURE( 1.000000000000000100E-005 ), #207, 'distance_accuracy_value', 'NONE');
#205 =( NAMED_UNIT ( * ) SI_UNIT ( $, .STERADIAN. ) SOLID_ANGLE_UNIT ( ) );
#206 =( NAMED_UNIT ( * ) PLANE_ANGLE_UNIT ( ) SI_UNIT ( $, .RADIAN. ) );
#207 =( LENGTH_UNIT ( ) NAMED_UNIT ( * ) SI_UNIT ( .MILLI., .METRE. ) );
#208 = MECHANICAL_DESIGN_GEOMETRIC_PRESENTATION_REPRESENTATION (  '', ( #210 ), #244 ) ;
#209 = PRESENTATION_LAYER_ASSIGNMENT (  '', '', ( #210 ) ) ;
#210 = STYLED_ITEM ( 'NONE', ( #211 ), #193 ) ;
#211 = PRESENTATION_STYLE_ASSIGNMENT (( #212 ) ) ;
#212 = SURFACE_STYLE_USAGE ( .BOTH. , #213 ) ;
#213 = SURFACE_SIDE_STYLE ('',( #214 ) ) ;
#214 = SURFACE_STYLE_FILL_AREA ( #215 ) ;
#215 = FILL_AREA_STYLE ('',( #216 ) ) ;
#216 = FILL_AREA_STYLE_COLOUR ( '', #217 ) ;
#217 = COLOUR_RGB ( '',0.9568627450980391500, 0.9490196078431372100, 0.9607843137254902200 ) ;
#218 = DIRECTION ( 'NONE',  ( 1.000000000000000000, 0.0000000000000000000, 0.0000000000000000000 ) ) ;
#219 = DIRECTION ( 'NONE',  ( -0.0000000000000000000, -0.0000000000000000000, 1.000000000000000000 ) ) ;
#220 = ORIENTED_EDGE ( 'NONE', *, *, #222, .T. ) ;
#221 = VERTEX_POINT ( 'NONE', #40 ) ;
#222 = EDGE_CURVE ( 'NONE', #203, #221, #8, .T. ) ;
#223 = ORIENTED_EDGE ( 'NONE', *, *, #224, .F. ) ;
#224 = EDGE_CURVE ( 'NONE', #225, #221, #4, .T. ) ;
#225 = VERTEX_POINT ( 'NONE', #47 ) ;
#226 = EDGE_CURVE ( 'NONE', #227, #225, #18, .T. ) ;
#227 = VERTEX_POINT ( 'NONE', #31 ) ;
#228 = EDGE_CURVE ( 'NONE', #202, #249, #29, .T. ) ;
#229 = ADVANCED_FACE ( 'NONE', ( #64 ), #154, .F. ) ;
#230 = CARTESIAN_POINT ( 'NONE',  ( 0.0000000000000000000, 0.0000000000000000000, 1.184956177121908800 ) ) ;
#231 = AXIS2_PLACEMENT_3D ( 'NONE', #230, #219, #218 ) ;
#232 = CIRCLE ( 'NONE', #231, 2.999999999999999100 ) ;
#233 = FACE_OUTER_BOUND ( 'NONE', #191, .T. ) ;
#234 = ORIENTED_EDGE ( 'NONE', *, *, #201, .F. ) ;
#235 = VERTEX_POINT ( 'NONE', #116 ) ;
#236 = ORIENTED_EDGE ( 'NONE', *, *, #250, .T. ) ;
#237 = EDGE_CURVE ( 'NONE', #203, #202, #114, .T. ) ;
#238 = ADVANCED_FACE ( 'NONE', ( #115 ), #128, .T. ) ;
#239 = ORIENTED_EDGE ( 'NONE', *, *, #226, .T. ) ;
#240 = ORIENTED_EDGE ( 'NONE', *, *, #224, .T. ) ;
#241 = CARTESIAN_POINT ( 'NONE',  ( 0.0000000000000000000, 3.673940397442059900E-016, -1.184956177121907900 ) ) ;
#242 = AXIS2_PLACEMENT_3D ( 'NONE', #241, #38, #1 ) ;
#243 = PLANE ( 'NONE',  #242 ) ;
#244 =( GEOMETRIC_REPRESENTATION_CONTEXT ( 3 ) GLOBAL_UNCERTAINTY_ASSIGNED_CONTEXT ( ( #204 ) ) GLOBAL_UNIT_ASSIGNED_CONTEXT ( ( #207, #206, #205 ) ) REPRESENTATION_CONTEXT ( 'NONE', 'WORKASPACE' ) );
#245 = ORIENTED_EDGE ( 'NONE', *, *, #226, .F. ) ;
#246 = EDGE_LOOP ( 'NONE', ( #245, #260, #195, #236 ) ) ;
#247 = ORIENTED_EDGE ( 'NONE', *, *, #228, .F. ) ;
#248 = ORIENTED_EDGE ( 'NONE', *, *, #250, .F. ) ;
#249 = VERTEX_POINT ( 'NONE', #121 ) ;
#250 = EDGE_CURVE ( 'NONE', #249, #225, #129, .T. ) ;
#251 = CLOSED_SHELL ( 'NONE', ( #198, #229, #257, #193, #238 ) ) ;
#252 = ORIENTED_EDGE ( 'NONE', *, *, #228, .T. ) ;
#253 = ORIENTED_EDGE ( 'NONE', *, *, #261, .F. ) ;
#254 = ORIENTED_EDGE ( 'NONE', *, *, #190, .F. ) ;
#255 = ORIENTED_EDGE ( 'NONE', *, *, #256, .F. ) ;
#256 = EDGE_CURVE ( 'NONE', #227, #235, #102, .T. ) ;
#257 = ADVANCED_FACE ( 'NONE', ( #135 ), #126, .F. ) ;
#258 = ORIENTED_EDGE ( 'NONE', *, *, #237, .F. ) ;
#259 = EDGE_LOOP ( 'NONE', ( #194, #196, #252, #253, #254 ) ) ;
#260 = ORIENTED_EDGE ( 'NONE', *, *, #256, .T. ) ;
#261 = EDGE_CURVE ( 'NONE', #235, #249, #91, .T. ) ;
ENDSEC;
END-ISO-10303-21;
