ISO-10303-21;
HEADER;
FILE_DESCRIPTION (( 'STEP AP203' ),
    '1' );
FILE_NAME ('Web Model 11875_15972.step',
    '2020-10-07T17:19:27',
    ( '' ),
    ( '' ),
    'SwSTEP 2.0',
    'SolidWorks 2018',
    '' );
FILE_SCHEMA (( 'CONFIG_CONTROL_DESIGN' ));
ENDSEC;

DATA;
#1 = VECTOR ( 'NONE', #144, 1000.000000000000000 ) ;
#2 = DESIGN_CONTEXT ( 'detailed design', #54, 'design' ) ;
#3 = FACE_OUTER_BOUND ( 'NONE', #154, .T. ) ;
#4 = CARTESIAN_POINT ( 'NONE',  ( 0.0000000000000000000, 0.0000000000000000000, 1.500000000000000000 ) ) ;
#5 = PRODUCT_RELATED_PRODUCT_CATEGORY ( 'detail', '', ( #141 ) ) ;
#6 = APPROVAL_STATUS ( 'not_yet_approved' ) ;
#7 = CARTESIAN_POINT ( 'NONE',  ( 0.0000000000000000000, 0.0000000000000000000, -1.500000000000000000 ) ) ;
#8 = UNCERTAINTY_MEASURE_WITH_UNIT (LENGTH_MEASURE( 1.000000000000000082E-05 ), #43, 'distance_accuracy_value', 'NONE');
#9 = ORIENTED_EDGE ( 'NONE', *, *, #122, .T. ) ;
#10 = CC_DESIGN_PERSON_AND_ORGANIZATION_ASSIGNMENT ( #166, #126, ( #146 ) ) ;
#11 = CALENDAR_DATE ( 2020, 7, 10 ) ;
#12 = DIRECTION ( 'NONE',  ( 1.000000000000000000, 0.0000000000000000000, 0.0000000000000000000 ) ) ;
#13 = ADVANCED_FACE ( 'NONE', ( #28 ), #40, .T. ) ;
#14 = ORIENTED_EDGE ( 'NONE', *, *, #133, .F. ) ;
#15 = CARTESIAN_POINT ( 'NONE',  ( 25.39999999999999858, 3.110602869834276865E-15, -1.500000000000000000 ) ) ;
#16 = CARTESIAN_POINT ( 'NONE',  ( 0.0000000000000000000, 0.0000000000000000000, 1.500000000000000000 ) ) ;
#17 = DIRECTION ( 'NONE',  ( -0.0000000000000000000, -0.0000000000000000000, -1.000000000000000000 ) ) ;
#18 = EDGE_LOOP ( 'NONE', ( #111, #9 ) ) ;
#19 = DATE_TIME_ROLE ( 'classification_date' ) ;
#20 = MANIFOLD_SOLID_BREP ( 'Boss-Extrude1', #121 ) ;
#21 = COORDINATED_UNIVERSAL_TIME_OFFSET ( 5, 0, .BEHIND. ) ;
#22 = CARTESIAN_POINT ( 'NONE',  ( -25.39999999999999858, 0.0000000000000000000, -1.500000000000000000 ) ) ;
#23 = AXIS2_PLACEMENT_3D ( 'NONE', #16, #34, #153 ) ;
#24 = PERSON_AND_ORGANIZATION_ROLE ( 'design_owner' ) ;
#25 = VERTEX_POINT ( 'NONE', #131 ) ;
#26 = ORGANIZATION ( 'UNSPECIFIED', 'UNSPECIFIED', '' ) ;
#27 = CALENDAR_DATE ( 2020, 7, 10 ) ;
#28 = FACE_OUTER_BOUND ( 'NONE', #18, .T. ) ;
#29 = AXIS2_PLACEMENT_3D ( 'NONE', #129, #130, #109 ) ;
#30 = ADVANCED_FACE ( 'NONE', ( #93 ), #78, .F. ) ;
#31 = DIRECTION ( 'NONE',  ( 1.000000000000000000, 0.0000000000000000000, 0.0000000000000000000 ) ) ;
#32 = VERTEX_POINT ( 'NONE', #22 ) ;
#33 = DIRECTION ( 'NONE',  ( 0.0000000000000000000, 0.0000000000000000000, 1.000000000000000000 ) ) ;
#34 = DIRECTION ( 'NONE',  ( 0.0000000000000000000, 0.0000000000000000000, 1.000000000000000000 ) ) ;
#35 = COORDINATED_UNIVERSAL_TIME_OFFSET ( 5, 0, .BEHIND. ) ;
#36 = APPROVAL_ROLE ( '' ) ;
#37 = APPROVAL_PERSON_ORGANIZATION ( #90, #127, #110 ) ;
#38 = CIRCLE ( 'NONE', #23, 25.39999999999999858 ) ;
#39 = EDGE_CURVE ( 'NONE', #162, #32, #108, .T. ) ;
#40 = PLANE ( 'NONE',  #52 ) ;
#41 = CC_DESIGN_APPROVAL ( #149, ( #60 ) ) ;
#42 = VECTOR ( 'NONE', #84, 1000.000000000000000 ) ;
#43 =( LENGTH_UNIT ( ) NAMED_UNIT ( * ) SI_UNIT ( .MILLI., .METRE. ) );
#44 = CARTESIAN_POINT ( 'NONE',  ( 0.0000000000000000000, 0.0000000000000000000, 0.0000000000000000000 ) ) ;
#45 = EDGE_CURVE ( 'NONE', #32, #66, #138, .T. ) ;
#46 = ORIENTED_EDGE ( 'NONE', *, *, #39, .T. ) ;
#47 = APPROVAL_STATUS ( 'not_yet_approved' ) ;
#48 = MECHANICAL_CONTEXT ( 'NONE', #139, 'mechanical' ) ;
#49 = APPROVAL_PERSON_ORGANIZATION ( #56, #160, #36 ) ;
#50 = EDGE_CURVE ( 'NONE', #162, #25, #161, .T. ) ;
#51 = ORIENTED_EDGE ( 'NONE', *, *, #89, .F. ) ;
#52 = AXIS2_PLACEMENT_3D ( 'NONE', #76, #88, #155 ) ;
#53 = CALENDAR_DATE ( 2020, 7, 10 ) ;
#54 = APPLICATION_CONTEXT ( 'configuration controlled 3d designs of mechanical parts and assemblies' ) ;
#55 = FACE_OUTER_BOUND ( 'NONE', #79, .T. ) ;
#56 = PERSON_AND_ORGANIZATION ( #120, #26 ) ;
#57 = SHAPE_DEFINITION_REPRESENTATION ( #99, #167 ) ;
#58 = DIRECTION ( 'NONE',  ( 0.0000000000000000000, 0.0000000000000000000, 1.000000000000000000 ) ) ;
#59 = PERSON_AND_ORGANIZATION ( #120, #26 ) ;
#60 = SECURITY_CLASSIFICATION ( '', '', #142 ) ;
#61 = DATE_TIME_ROLE ( 'creation_date' ) ;
#62 = CALENDAR_DATE ( 2020, 7, 10 ) ;
#63 = APPROVAL_DATE_TIME ( #116, #160 ) ;
#64 = DIRECTION ( 'NONE',  ( 0.0000000000000000000, 0.0000000000000000000, 1.000000000000000000 ) ) ;
#65 = APPROVAL_DATE_TIME ( #143, #127 ) ;
#66 = VERTEX_POINT ( 'NONE', #15 ) ;
#67 = DATE_AND_TIME ( #27, #91 ) ;
#68 = AXIS2_PLACEMENT_3D ( 'NONE', #4, #17, #106 ) ;
#69 = CC_DESIGN_PERSON_AND_ORGANIZATION_ASSIGNMENT ( #59, #87, ( #146 ) ) ;
#70 = CC_DESIGN_SECURITY_CLASSIFICATION ( #60, ( #146 ) ) ;
#71 = DIRECTION ( 'NONE',  ( -1.000000000000000000, 0.0000000000000000000, 0.0000000000000000000 ) ) ;
#72 = ORIENTED_EDGE ( 'NONE', *, *, #45, .T. ) ;
#73 = DIRECTION ( 'NONE',  ( 0.0000000000000000000, 0.0000000000000000000, 1.000000000000000000 ) ) ;
#74 = PERSON_AND_ORGANIZATION_ROLE ( 'classification_officer' ) ;
#75 = APPROVAL_STATUS ( 'not_yet_approved' ) ;
#76 = CARTESIAN_POINT ( 'NONE',  ( 0.0000000000000000000, 0.0000000000000000000, 1.500000000000000000 ) ) ;
#77 = COORDINATED_UNIVERSAL_TIME_OFFSET ( 5, 0, .BEHIND. ) ;
#78 = PLANE ( 'NONE',  #29 ) ;
#79 = EDGE_LOOP ( 'NONE', ( #51, #171, #46, #72 ) ) ;
#80 = CYLINDRICAL_SURFACE ( 'NONE', #103, 25.39999999999999858 ) ;
#81 = CC_DESIGN_PERSON_AND_ORGANIZATION_ASSIGNMENT ( #159, #74, ( #60 ) ) ;
#82 = LOCAL_TIME ( 13, 19, 27.00000000000000000, #21 ) ;
#83 = AXIS2_PLACEMENT_3D ( 'NONE', #44, #33, #12 ) ;
#84 = DIRECTION ( 'NONE',  ( -0.0000000000000000000, -0.0000000000000000000, -1.000000000000000000 ) ) ;
#85 = APPLICATION_PROTOCOL_DEFINITION ( 'international standard', 'config_control_design', 1994, #54 ) ;
#86 = DIRECTION ( 'NONE',  ( 1.000000000000000000, 0.0000000000000000000, 0.0000000000000000000 ) ) ;
#87 = PERSON_AND_ORGANIZATION_ROLE ( 'creator' ) ;
#88 = DIRECTION ( 'NONE',  ( 0.0000000000000000000, 0.0000000000000000000, 1.000000000000000000 ) ) ;
#89 = EDGE_CURVE ( 'NONE', #25, #66, #115, .T. ) ;
#90 = PERSON_AND_ORGANIZATION ( #120, #26 ) ;
#91 = LOCAL_TIME ( 13, 19, 27.00000000000000000, #125 ) ;
#92 = CC_DESIGN_DATE_AND_TIME_ASSIGNMENT ( #67, #19, ( #60 ) ) ;
#93 = FACE_OUTER_BOUND ( 'NONE', #102, .T. ) ;
#94 = DATE_AND_TIME ( #62, #113 ) ;
#95 = ORIENTED_EDGE ( 'NONE', *, *, #122, .F. ) ;
#96 = DIRECTION ( 'NONE',  ( -0.0000000000000000000, -0.0000000000000000000, -1.000000000000000000 ) ) ;
#97 = ORIENTED_EDGE ( 'NONE', *, *, #45, .F. ) ;
#98 = APPLICATION_PROTOCOL_DEFINITION ( 'international standard', 'config_control_design', 1994, #139 ) ;
#99 = PRODUCT_DEFINITION_SHAPE ( 'NONE', 'NONE',  #114 ) ;
#100 = CC_DESIGN_PERSON_AND_ORGANIZATION_ASSIGNMENT ( #112, #123, ( #114 ) ) ;
#101 = DATE_AND_TIME ( #53, #136 ) ;
#102 = EDGE_LOOP ( 'NONE', ( #97, #14 ) ) ;
#103 = AXIS2_PLACEMENT_3D ( 'NONE', #152, #96, #71 ) ;
#104 = PERSON_AND_ORGANIZATION ( #120, #26 ) ;
#105 = CC_DESIGN_PERSON_AND_ORGANIZATION_ASSIGNMENT ( #104, #24, ( #141 ) ) ;
#106 = DIRECTION ( 'NONE',  ( -1.000000000000000000, 0.0000000000000000000, 0.0000000000000000000 ) ) ;
#107 = CARTESIAN_POINT ( 'NONE',  ( 0.0000000000000000000, 0.0000000000000000000, 1.500000000000000000 ) ) ;
#108 = LINE ( 'NONE', #174, #1 ) ;
#109 = DIRECTION ( 'NONE',  ( 1.000000000000000000, 0.0000000000000000000, -0.0000000000000000000 ) ) ;
#110 = APPROVAL_ROLE ( '' ) ;
#111 = ORIENTED_EDGE ( 'NONE', *, *, #50, .T. ) ;
#112 = PERSON_AND_ORGANIZATION ( #120, #26 ) ;
#113 = LOCAL_TIME ( 13, 19, 27.00000000000000000, #35 ) ;
#114 = PRODUCT_DEFINITION ( 'UNKNOWN', '', #146, #2 ) ;
#115 = LINE ( 'NONE', #137, #42 ) ;
#116 = DATE_AND_TIME ( #11, #82 ) ;
#117 = CIRCLE ( 'NONE', #164, 25.39999999999999858 ) ;
#118 =( NAMED_UNIT ( * ) SI_UNIT ( $, .STERADIAN. ) SOLID_ANGLE_UNIT ( ) );
#119 = CARTESIAN_POINT ( 'NONE',  ( 0.0000000000000000000, 0.0000000000000000000, -1.500000000000000000 ) ) ;
#120 = PERSON ( 'UNSPECIFIED', 'UNSPECIFIED', 'UNSPECIFIED', ('UNSPECIFIED'), ('UNSPECIFIED'), ('UNSPECIFIED') ) ;
#121 = CLOSED_SHELL ( 'NONE', ( #163, #147, #13, #30 ) ) ;
#122 = EDGE_CURVE ( 'NONE', #25, #162, #38, .T. ) ;
#123 = PERSON_AND_ORGANIZATION_ROLE ( 'creator' ) ;
#124 = CALENDAR_DATE ( 2020, 7, 10 ) ;
#125 = COORDINATED_UNIVERSAL_TIME_OFFSET ( 5, 0, .BEHIND. ) ;
#126 = PERSON_AND_ORGANIZATION_ROLE ( 'design_supplier' ) ;
#127 = APPROVAL ( #75, 'UNSPECIFIED' ) ;
#128 = ORIENTED_EDGE ( 'NONE', *, *, #133, .T. ) ;
#129 = CARTESIAN_POINT ( 'NONE',  ( 0.0000000000000000000, 0.0000000000000000000, -1.500000000000000000 ) ) ;
#130 = DIRECTION ( 'NONE',  ( 0.0000000000000000000, 0.0000000000000000000, 1.000000000000000000 ) ) ;
#131 = CARTESIAN_POINT ( 'NONE',  ( 25.39999999999999858, 3.110602869834276865E-15, 1.500000000000000000 ) ) ;
#132 = ORIENTED_EDGE ( 'NONE', *, *, #89, .T. ) ;
#133 = EDGE_CURVE ( 'NONE', #66, #32, #117, .T. ) ;
#134 = DIRECTION ( 'NONE',  ( 1.000000000000000000, 0.0000000000000000000, 0.0000000000000000000 ) ) ;
#135 = CC_DESIGN_APPROVAL ( #127, ( #114 ) ) ;
#136 = LOCAL_TIME ( 13, 19, 27.00000000000000000, #77 ) ;
#137 = CARTESIAN_POINT ( 'NONE',  ( 25.39999999999999858, 3.110602869834276865E-15, 1.500000000000000000 ) ) ;
#138 = CIRCLE ( 'NONE', #168, 25.39999999999999858 ) ;
#139 = APPLICATION_CONTEXT ( 'configuration controlled 3d designs of mechanical parts and assemblies' ) ;
#140 = APPROVAL_PERSON_ORGANIZATION ( #170, #149, #157 ) ;
#141 = PRODUCT ( 'Web Model 11875_15972', 'Web Model 11875_15972', '', ( #48 ) ) ;
#142 = SECURITY_CLASSIFICATION_LEVEL ( 'unclassified' ) ;
#143 = DATE_AND_TIME ( #124, #158 ) ;
#144 = DIRECTION ( 'NONE',  ( -0.0000000000000000000, -0.0000000000000000000, -1.000000000000000000 ) ) ;
#145 = CC_DESIGN_DATE_AND_TIME_ASSIGNMENT ( #101, #61, ( #114 ) ) ;
#146 = PRODUCT_DEFINITION_FORMATION_WITH_SPECIFIED_SOURCE ( 'ANY', '', #141, .NOT_KNOWN. ) ;
#147 = ADVANCED_FACE ( 'NONE', ( #55 ), #80, .T. ) ;
#148 = ORIENTED_EDGE ( 'NONE', *, *, #39, .F. ) ;
#149 = APPROVAL ( #6, 'UNSPECIFIED' ) ;
#150 =( GEOMETRIC_REPRESENTATION_CONTEXT ( 3 ) GLOBAL_UNCERTAINTY_ASSIGNED_CONTEXT ( ( #8 ) ) GLOBAL_UNIT_ASSIGNED_CONTEXT ( ( #43, #172, #118 ) ) REPRESENTATION_CONTEXT ( 'NONE', 'WORKASPACE' ) );
#151 = CYLINDRICAL_SURFACE ( 'NONE', #68, 25.39999999999999858 ) ;
#152 = CARTESIAN_POINT ( 'NONE',  ( 0.0000000000000000000, 0.0000000000000000000, 1.500000000000000000 ) ) ;
#153 = DIRECTION ( 'NONE',  ( 1.000000000000000000, 0.0000000000000000000, 0.0000000000000000000 ) ) ;
#154 = EDGE_LOOP ( 'NONE', ( #95, #132, #128, #148 ) ) ;
#155 = DIRECTION ( 'NONE',  ( 1.000000000000000000, 0.0000000000000000000, -0.0000000000000000000 ) ) ;
#156 = AXIS2_PLACEMENT_3D ( 'NONE', #107, #73, #31 ) ;
#157 = APPROVAL_ROLE ( '' ) ;
#158 = LOCAL_TIME ( 13, 19, 27.00000000000000000, #165 ) ;
#159 = PERSON_AND_ORGANIZATION ( #120, #26 ) ;
#160 = APPROVAL ( #47, 'UNSPECIFIED' ) ;
#161 = CIRCLE ( 'NONE', #156, 25.39999999999999858 ) ;
#162 = VERTEX_POINT ( 'NONE', #169 ) ;
#163 = ADVANCED_FACE ( 'NONE', ( #3 ), #151, .T. ) ;
#164 = AXIS2_PLACEMENT_3D ( 'NONE', #119, #58, #86 ) ;
#165 = COORDINATED_UNIVERSAL_TIME_OFFSET ( 5, 0, .BEHIND. ) ;
#166 = PERSON_AND_ORGANIZATION ( #120, #26 ) ;
#167 = ADVANCED_BREP_SHAPE_REPRESENTATION ( 'Web Model 11875_15972', ( #20, #83 ), #150 ) ;
#168 = AXIS2_PLACEMENT_3D ( 'NONE', #7, #64, #134 ) ;
#169 = CARTESIAN_POINT ( 'NONE',  ( -25.39999999999999858, 0.0000000000000000000, 1.500000000000000000 ) ) ;
#170 = PERSON_AND_ORGANIZATION ( #120, #26 ) ;
#171 = ORIENTED_EDGE ( 'NONE', *, *, #50, .F. ) ;
#172 =( NAMED_UNIT ( * ) PLANE_ANGLE_UNIT ( ) SI_UNIT ( $, .RADIAN. ) );
#173 = CC_DESIGN_APPROVAL ( #160, ( #146 ) ) ;
#174 = CARTESIAN_POINT ( 'NONE',  ( -25.39999999999999858, 0.0000000000000000000, 1.500000000000000000 ) ) ;
#175 = APPROVAL_DATE_TIME ( #94, #149 ) ;
ENDSEC;
END-ISO-10303-21;
