ISO-10303-21;
HEADER;
FILE_DESCRIPTION (( 'STEP AP203' ),
    '1' );
FILE_NAME ('Web Model 68386.STEP',
    '2017-01-31T19:53:35',
    ( '' ),
    ( '' ),
    'SwSTEP 2.0',
    'SolidWorks 2016',
    '' );
FILE_SCHEMA (( 'CONFIG_CONTROL_DESIGN' ));
ENDSEC;

DATA;
#1 = DIRECTION ( 'NONE',  ( 0.0000000000000000000, 0.0000000000000000000, 1.000000000000000000 ) ) ;
#2 = PRODUCT_RELATED_PRODUCT_CATEGORY ( 'detail', '', ( #70 ) ) ;
#3 = APPROVAL_ROLE ( '' ) ;
#4 = AXIS2_PLACEMENT_3D ( 'NONE', #16, #67, #137 ) ;
#5 = CARTESIAN_POINT ( 'NONE',  ( 12.50000000000000000, 1.530808498934191500E-015, 3.000000000000000000 ) ) ;
#6 = DIRECTION ( 'NONE',  ( 1.000000000000000000, 0.0000000000000000000, 0.0000000000000000000 ) ) ;
#7 = DIRECTION ( 'NONE',  ( -0.0000000000000000000, -0.0000000000000000000, -1.000000000000000000 ) ) ;
#8 = FACE_OUTER_BOUND ( 'NONE', #21, .T. ) ;
#9 = AXIS2_PLACEMENT_3D ( 'NONE', #40, #102, #39 ) ;
#10 = ADVANCED_FACE ( 'NONE', ( #8 ), #45, .T. ) ;
#11 = PERSON_AND_ORGANIZATION ( #92, #133 ) ;
#12 = CC_DESIGN_PERSON_AND_ORGANIZATION_ASSIGNMENT ( #161, #85, ( #126 ) ) ;
#13 = VECTOR ( 'NONE', #73, 1000.000000000000000 ) ;
#14 = VERTEX_POINT ( 'NONE', #153 ) ;
#15 = CARTESIAN_POINT ( 'NONE',  ( 12.50000000000000000, 1.530808498934191500E-015, 0.0000000000000000000 ) ) ;
#16 = CARTESIAN_POINT ( 'NONE',  ( 0.0000000000000000000, 0.0000000000000000000, 0.0000000000000000000 ) ) ;
#17 = DIRECTION ( 'NONE',  ( 0.0000000000000000000, 0.0000000000000000000, 1.000000000000000000 ) ) ;
#18 = APPROVAL_ROLE ( '' ) ;
#19 = CYLINDRICAL_SURFACE ( 'NONE', #80, 12.50000000000000000 ) ;
#20 = DIRECTION ( 'NONE',  ( 1.000000000000000000, 0.0000000000000000000, 0.0000000000000000000 ) ) ;
#21 = EDGE_LOOP ( 'NONE', ( #155, #29, #123, #25 ) ) ;
#22 = AXIS2_PLACEMENT_3D ( 'NONE', #117, #114, #6 ) ;
#23 = DIRECTION ( 'NONE',  ( -0.0000000000000000000, -0.0000000000000000000, -1.000000000000000000 ) ) ;
#24 = EDGE_CURVE ( 'NONE', #14, #147, #140, .T. ) ;
#25 = ORIENTED_EDGE ( 'NONE', *, *, #68, .T. ) ;
#26 = ADVANCED_FACE ( 'NONE', ( #116 ), #156, .T. ) ;
#27 = APPROVAL_PERSON_ORGANIZATION ( #54, #55, #3 ) ;
#28 = AXIS2_PLACEMENT_3D ( 'NONE', #37, #49, #139 ) ;
#29 = ORIENTED_EDGE ( 'NONE', *, *, #172, .F. ) ;
#30 = APPROVAL_STATUS ( 'not_yet_approved' ) ;
#31 = CARTESIAN_POINT ( 'NONE',  ( 0.0000000000000000000, 0.0000000000000000000, 0.0000000000000000000 ) ) ;
#32 = PERSON_AND_ORGANIZATION ( #92, #133 ) ;
#33 = CARTESIAN_POINT ( 'NONE',  ( 0.0000000000000000000, 0.0000000000000000000, 0.0000000000000000000 ) ) ;
#34 = CC_DESIGN_PERSON_AND_ORGANIZATION_ASSIGNMENT ( #175, #127, ( #115 ) ) ;
#35 = AXIS2_PLACEMENT_3D ( 'NONE', #112, #17, #150 ) ;
#36 = DIRECTION ( 'NONE',  ( 1.000000000000000000, 0.0000000000000000000, 0.0000000000000000000 ) ) ;
#37 = CARTESIAN_POINT ( 'NONE',  ( 0.0000000000000000000, 0.0000000000000000000, 3.000000000000000000 ) ) ;
#38 = PERSON_AND_ORGANIZATION ( #92, #133 ) ;
#39 = DIRECTION ( 'NONE',  ( 1.000000000000000000, 0.0000000000000000000, -0.0000000000000000000 ) ) ;
#40 = CARTESIAN_POINT ( 'NONE',  ( 0.0000000000000000000, 0.0000000000000000000, 3.000000000000000000 ) ) ;
#41 = LOCAL_TIME ( 14, 53, 35.00000000000000000, #77 ) ;
#42 = ORIENTED_EDGE ( 'NONE', *, *, #24, .T. ) ;
#43 = ADVANCED_FACE ( 'NONE', ( #56 ), #19, .T. ) ;
#44 =( GEOMETRIC_REPRESENTATION_CONTEXT ( 3 ) GLOBAL_UNCERTAINTY_ASSIGNED_CONTEXT ( ( #162 ) ) GLOBAL_UNIT_ASSIGNED_CONTEXT ( ( #113, #64, #111 ) ) REPRESENTATION_CONTEXT ( 'NONE', 'WORKASPACE' ) );
#45 = CYLINDRICAL_SURFACE ( 'NONE', #28, 12.50000000000000000 ) ;
#46 = PERSON_AND_ORGANIZATION_ROLE ( 'creator' ) ;
#47 = DIRECTION ( 'NONE',  ( 0.0000000000000000000, 0.0000000000000000000, 1.000000000000000000 ) ) ;
#48 = PLANE ( 'NONE',  #4 ) ;
#49 = DIRECTION ( 'NONE',  ( -0.0000000000000000000, -0.0000000000000000000, -1.000000000000000000 ) ) ;
#50 = CARTESIAN_POINT ( 'NONE',  ( 0.0000000000000000000, 0.0000000000000000000, 3.000000000000000000 ) ) ;
#51 = EDGE_LOOP ( 'NONE', ( #158, #42 ) ) ;
#52 = AXIS2_PLACEMENT_3D ( 'NONE', #50, #78, #20 ) ;
#53 = CALENDAR_DATE ( 2017, 31, 1 ) ;
#54 = PERSON_AND_ORGANIZATION ( #92, #133 ) ;
#55 = APPROVAL ( #30, 'UNSPECIFIED' ) ;
#56 = FACE_OUTER_BOUND ( 'NONE', #174, .T. ) ;
#57 = ORIENTED_EDGE ( 'NONE', *, *, #68, .F. ) ;
#58 = AXIS2_PLACEMENT_3D ( 'NONE', #33, #1, #152 ) ;
#59 = COORDINATED_UNIVERSAL_TIME_OFFSET ( 5, 0, .BEHIND. ) ;
#60 = APPLICATION_CONTEXT ( 'configuration controlled 3d designs of mechanical parts and assemblies' ) ;
#61 = PRODUCT_DEFINITION_SHAPE ( 'NONE', 'NONE',  #115 ) ;
#62 = APPLICATION_PROTOCOL_DEFINITION ( 'international standard', 'config_control_design', 1994, #60 ) ;
#63 = MANIFOLD_SOLID_BREP ( 'Extrude1', #121 ) ;
#64 =( NAMED_UNIT ( * ) PLANE_ANGLE_UNIT ( ) SI_UNIT ( $, .RADIAN. ) );
#65 = DATE_AND_TIME ( #108, #164 ) ;
#66 = APPROVAL ( #136, 'UNSPECIFIED' ) ;
#67 = DIRECTION ( 'NONE',  ( 0.0000000000000000000, 0.0000000000000000000, 1.000000000000000000 ) ) ;
#68 = EDGE_CURVE ( 'NONE', #134, #107, #91, .T. ) ;
#69 = APPROVAL_DATE_TIME ( #84, #55 ) ;
#70 = PRODUCT ( 'Web Model 68386', 'Web Model 68386', '', ( #125 ) ) ;
#71 = EDGE_CURVE ( 'NONE', #147, #134, #166, .T. ) ;
#72 = DATE_AND_TIME ( #171, #41 ) ;
#73 = DIRECTION ( 'NONE',  ( -0.0000000000000000000, -0.0000000000000000000, -1.000000000000000000 ) ) ;
#74 = COORDINATED_UNIVERSAL_TIME_OFFSET ( 5, 0, .BEHIND. ) ;
#75 = APPLICATION_CONTEXT ( 'configuration controlled 3d designs of mechanical parts and assemblies' ) ;
#76 = DATE_TIME_ROLE ( 'creation_date' ) ;
#77 = COORDINATED_UNIVERSAL_TIME_OFFSET ( 5, 0, .BEHIND. ) ;
#78 = DIRECTION ( 'NONE',  ( 0.0000000000000000000, 0.0000000000000000000, 1.000000000000000000 ) ) ;
#79 = CC_DESIGN_SECURITY_CLASSIFICATION ( #126, ( #109 ) ) ;
#80 = AXIS2_PLACEMENT_3D ( 'NONE', #131, #23, #129 ) ;
#81 = ORIENTED_EDGE ( 'NONE', *, *, #24, .F. ) ;
#82 = ADVANCED_FACE ( 'NONE', ( #146 ), #48, .F. ) ;
#83 = APPROVAL_DATE_TIME ( #93, #165 ) ;
#84 = DATE_AND_TIME ( #170, #96 ) ;
#85 = PERSON_AND_ORGANIZATION_ROLE ( 'classification_officer' ) ;
#86 = CARTESIAN_POINT ( 'NONE',  ( -12.50000000000000000, 0.0000000000000000000, 0.0000000000000000000 ) ) ;
#87 = PERSON_AND_ORGANIZATION_ROLE ( 'design_supplier' ) ;
#88 = LOCAL_TIME ( 14, 53, 35.00000000000000000, #74 ) ;
#89 = LOCAL_TIME ( 14, 53, 35.00000000000000000, #124 ) ;
#90 = CC_DESIGN_APPROVAL ( #165, ( #115 ) ) ;
#91 = CIRCLE ( 'NONE', #22, 12.50000000000000000 ) ;
#92 = PERSON ( 'UNSPECIFIED', 'UNSPECIFIED', 'UNSPECIFIED', ('UNSPECIFIED'), ('UNSPECIFIED'), ('UNSPECIFIED') ) ;
#93 = DATE_AND_TIME ( #99, #88 ) ;
#94 = ORIENTED_EDGE ( 'NONE', *, *, #71, .F. ) ;
#95 = AXIS2_PLACEMENT_3D ( 'NONE', #31, #47, #36 ) ;
#96 = LOCAL_TIME ( 14, 53, 35.00000000000000000, #59 ) ;
#97 = APPLICATION_PROTOCOL_DEFINITION ( 'international standard', 'config_control_design', 1994, #75 ) ;
#98 = CC_DESIGN_DATE_AND_TIME_ASSIGNMENT ( #65, #76, ( #115 ) ) ;
#99 = CALENDAR_DATE ( 2017, 31, 1 ) ;
#100 = APPROVAL_ROLE ( '' ) ;
#101 = CARTESIAN_POINT ( 'NONE',  ( -12.50000000000000000, 0.0000000000000000000, 3.000000000000000000 ) ) ;
#102 = DIRECTION ( 'NONE',  ( 0.0000000000000000000, 0.0000000000000000000, 1.000000000000000000 ) ) ;
#103 = EDGE_LOOP ( 'NONE', ( #57, #173 ) ) ;
#104 = SHAPE_DEFINITION_REPRESENTATION ( #61, #130 ) ;
#105 = CC_DESIGN_PERSON_AND_ORGANIZATION_ASSIGNMENT ( #167, #135, ( #70 ) ) ;
#106 = VECTOR ( 'NONE', #7, 1000.000000000000000 ) ;
#107 = VERTEX_POINT ( 'NONE', #15 ) ;
#108 = CALENDAR_DATE ( 2017, 31, 1 ) ;
#109 = PRODUCT_DEFINITION_FORMATION_WITH_SPECIFIED_SOURCE ( 'ANY', '', #70, .NOT_KNOWN. ) ;
#110 = APPROVAL_PERSON_ORGANIZATION ( #38, #66, #100 ) ;
#111 =( NAMED_UNIT ( * ) SI_UNIT ( $, .STERADIAN. ) SOLID_ANGLE_UNIT ( ) );
#112 = CARTESIAN_POINT ( 'NONE',  ( 0.0000000000000000000, 0.0000000000000000000, 3.000000000000000000 ) ) ;
#113 =( LENGTH_UNIT ( ) NAMED_UNIT ( * ) SI_UNIT ( .MILLI., .METRE. ) );
#114 = DIRECTION ( 'NONE',  ( 0.0000000000000000000, 0.0000000000000000000, 1.000000000000000000 ) ) ;
#115 = PRODUCT_DEFINITION ( 'UNKNOWN', '', #109, #144 ) ;
#116 = FACE_OUTER_BOUND ( 'NONE', #51, .T. ) ;
#117 = CARTESIAN_POINT ( 'NONE',  ( 0.0000000000000000000, 0.0000000000000000000, 0.0000000000000000000 ) ) ;
#118 = DATE_AND_TIME ( #53, #89 ) ;
#119 = CC_DESIGN_PERSON_AND_ORGANIZATION_ASSIGNMENT ( #11, #46, ( #109 ) ) ;
#120 = PERSON_AND_ORGANIZATION ( #92, #133 ) ;
#121 = CLOSED_SHELL ( 'NONE', ( #43, #10, #26, #82 ) ) ;
#122 = CIRCLE ( 'NONE', #35, 12.50000000000000000 ) ;
#123 = ORIENTED_EDGE ( 'NONE', *, *, #71, .T. ) ;
#124 = COORDINATED_UNIVERSAL_TIME_OFFSET ( 5, 0, .BEHIND. ) ;
#125 = MECHANICAL_CONTEXT ( 'NONE', #75, 'mechanical' ) ;
#126 = SECURITY_CLASSIFICATION ( '', '', #149 ) ;
#127 = PERSON_AND_ORGANIZATION_ROLE ( 'creator' ) ;
#128 = CARTESIAN_POINT ( 'NONE',  ( -12.50000000000000000, 0.0000000000000000000, 3.000000000000000000 ) ) ;
#129 = DIRECTION ( 'NONE',  ( -1.000000000000000000, 0.0000000000000000000, 0.0000000000000000000 ) ) ;
#130 = ADVANCED_BREP_SHAPE_REPRESENTATION ( 'Web Model 68386', ( #63, #95 ), #44 ) ;
#131 = CARTESIAN_POINT ( 'NONE',  ( 0.0000000000000000000, 0.0000000000000000000, 3.000000000000000000 ) ) ;
#132 = ORIENTED_EDGE ( 'NONE', *, *, #159, .T. ) ;
#133 = ORGANIZATION ( 'UNSPECIFIED', 'UNSPECIFIED', '' ) ;
#134 = VERTEX_POINT ( 'NONE', #86 ) ;
#135 = PERSON_AND_ORGANIZATION_ROLE ( 'design_owner' ) ;
#136 = APPROVAL_STATUS ( 'not_yet_approved' ) ;
#137 = DIRECTION ( 'NONE',  ( 1.000000000000000000, 0.0000000000000000000, -0.0000000000000000000 ) ) ;
#138 = APPROVAL_DATE_TIME ( #72, #66 ) ;
#139 = DIRECTION ( 'NONE',  ( -1.000000000000000000, 0.0000000000000000000, 0.0000000000000000000 ) ) ;
#140 = CIRCLE ( 'NONE', #52, 12.50000000000000000 ) ;
#141 = COORDINATED_UNIVERSAL_TIME_OFFSET ( 5, 0, .BEHIND. ) ;
#142 = CC_DESIGN_PERSON_AND_ORGANIZATION_ASSIGNMENT ( #120, #87, ( #109 ) ) ;
#143 = LINE ( 'NONE', #5, #13 ) ;
#144 = DESIGN_CONTEXT ( 'detailed design', #60, 'design' ) ;
#145 = EDGE_CURVE ( 'NONE', #14, #107, #143, .T. ) ;
#146 = FACE_OUTER_BOUND ( 'NONE', #103, .T. ) ;
#147 = VERTEX_POINT ( 'NONE', #128 ) ;
#148 = CC_DESIGN_APPROVAL ( #55, ( #109 ) ) ;
#149 = SECURITY_CLASSIFICATION_LEVEL ( 'unclassified' ) ;
#150 = DIRECTION ( 'NONE',  ( 1.000000000000000000, 0.0000000000000000000, 0.0000000000000000000 ) ) ;
#151 = APPROVAL_STATUS ( 'not_yet_approved' ) ;
#152 = DIRECTION ( 'NONE',  ( 1.000000000000000000, 0.0000000000000000000, 0.0000000000000000000 ) ) ;
#153 = CARTESIAN_POINT ( 'NONE',  ( 12.50000000000000000, 1.530808498934191500E-015, 3.000000000000000000 ) ) ;
#154 = CIRCLE ( 'NONE', #58, 12.50000000000000000 ) ;
#155 = ORIENTED_EDGE ( 'NONE', *, *, #145, .F. ) ;
#156 = PLANE ( 'NONE',  #9 ) ;
#157 = APPROVAL_PERSON_ORGANIZATION ( #32, #165, #18 ) ;
#158 = ORIENTED_EDGE ( 'NONE', *, *, #172, .T. ) ;
#159 = EDGE_CURVE ( 'NONE', #107, #134, #154, .T. ) ;
#160 = CC_DESIGN_DATE_AND_TIME_ASSIGNMENT ( #118, #163, ( #126 ) ) ;
#161 = PERSON_AND_ORGANIZATION ( #92, #133 ) ;
#162 = UNCERTAINTY_MEASURE_WITH_UNIT (LENGTH_MEASURE( 1.000000000000000100E-005 ), #113, 'distance_accuracy_value', 'NONE');
#163 = DATE_TIME_ROLE ( 'classification_date' ) ;
#164 = LOCAL_TIME ( 14, 53, 35.00000000000000000, #141 ) ;
#165 = APPROVAL ( #151, 'UNSPECIFIED' ) ;
#166 = LINE ( 'NONE', #101, #106 ) ;
#167 = PERSON_AND_ORGANIZATION ( #92, #133 ) ;
#168 = CC_DESIGN_APPROVAL ( #66, ( #126 ) ) ;
#169 = ORIENTED_EDGE ( 'NONE', *, *, #145, .T. ) ;
#170 = CALENDAR_DATE ( 2017, 31, 1 ) ;
#171 = CALENDAR_DATE ( 2017, 31, 1 ) ;
#172 = EDGE_CURVE ( 'NONE', #147, #14, #122, .T. ) ;
#173 = ORIENTED_EDGE ( 'NONE', *, *, #159, .F. ) ;
#174 = EDGE_LOOP ( 'NONE', ( #81, #169, #132, #94 ) ) ;
#175 = PERSON_AND_ORGANIZATION ( #92, #133 ) ;
ENDSEC;
END-ISO-10303-21;
