ISO-10303-21;
HEADER;
FILE_DESCRIPTION (( 'STEP AP203' ),
    '1' );
FILE_NAME ('Web Model 34243_17668.step',
    '2021-06-28T18:56:48',
    ( '' ),
    ( '' ),
    'SwSTEP 2.0',
    'SolidWorks 2018',
    '' );
FILE_SCHEMA (( 'CONFIG_CONTROL_DESIGN' ));
ENDSEC;

DATA;
#1 = VERTEX_POINT ( 'NONE', #98 ) ;
#2 =( GEOMETRIC_REPRESENTATION_CONTEXT ( 3 ) GLOBAL_UNCERTAINTY_ASSIGNED_CONTEXT ( ( #101 ) ) GLOBAL_UNIT_ASSIGNED_CONTEXT ( ( #130, #105, #88 ) ) REPRESENTATION_CONTEXT ( 'NONE', 'WORKASPACE' ) );
#3 = ORIENTED_EDGE ( 'NONE', *, *, #33, .F. ) ;
#4 = CARTESIAN_POINT ( 'NONE',  ( 25.00000000000000000, 0.000000000000000000, -3.218171694768792612 ) ) ;
#5 = PERSON_AND_ORGANIZATION_ROLE ( 'design_owner' ) ;
#6 = COORDINATED_UNIVERSAL_TIME_OFFSET ( 5, 0, .BEHIND. ) ;
#7 = MECHANICAL_CONTEXT ( 'NONE', #32, 'mechanical' ) ;
#8 = AXIS2_PLACEMENT_3D ( 'NONE', #10, #34, #128 ) ;
#9 = DATE_AND_TIME ( #56, #119 ) ;
#10 = CARTESIAN_POINT ( 'NONE',  ( 0.000000000000000000, 0.000000000000000000, 0.000000000000000000 ) ) ;
#11 = LOCAL_TIME ( 14, 56, 48.00000000000000000, #6 ) ;
#12 = CALENDAR_DATE ( 2021, 28, 6 ) ;
#13 = APPROVAL ( #49, 'UNSPECIFIED' ) ;
#14 = ORIENTED_EDGE ( 'NONE', *, *, #110, .T. ) ;
#15 = DIRECTION ( 'NONE',  ( 1.000000000000000000, 0.000000000000000000, -0.000000000000000000 ) ) ;
#16 = ADVANCED_FACE ( 'NONE', ( #27 ), #57, .T. ) ;
#17 = DIRECTION ( 'NONE',  ( 0.000000000000000000, 0.000000000000000000, 1.000000000000000000 ) ) ;
#18 = CC_DESIGN_APPROVAL ( #164, ( #26 ) ) ;
#19 = CARTESIAN_POINT ( 'NONE',  ( 25.00000000000000000, -25.00000000000000000, 0.000000000000000000 ) ) ;
#20 = PERSON_AND_ORGANIZATION ( #38, #42 ) ;
#21 = PRODUCT ( 'Web Model 34243_17668', 'Web Model 34243_17668', '', ( #7 ) ) ;
#22 = PERSON_AND_ORGANIZATION_ROLE ( 'creator' ) ;
#23 = DATE_AND_TIME ( #25, #136 ) ;
#24 = CC_DESIGN_SECURITY_CLASSIFICATION ( #53, ( #36 ) ) ;
#25 = CALENDAR_DATE ( 2021, 28, 6 ) ;
#26 = PRODUCT_DEFINITION ( 'UNKNOWN', '', #36, #142 ) ;
#27 = FACE_OUTER_BOUND ( 'NONE', #131, .T. ) ;
#28 = ADVANCED_FACE ( 'NONE', ( #61 ), #154, .T. ) ;
#29 = ORIENTED_EDGE ( 'NONE', *, *, #123, .F. ) ;
#30 = DIRECTION ( 'NONE',  ( 1.000000000000000000, 0.000000000000000000, 0.000000000000000000 ) ) ;
#31 = CARTESIAN_POINT ( 'NONE',  ( -25.00000000000000000, 3.061616997868383043E-15, 0.000000000000000000 ) ) ;
#32 = APPLICATION_CONTEXT ( 'configuration controlled 3d designs of mechanical parts and assemblies' ) ;
#33 = EDGE_CURVE ( 'NONE', #141, #92, #94, .T. ) ;
#34 = DIRECTION ( 'NONE',  ( 0.000000000000000000, 0.000000000000000000, 1.000000000000000000 ) ) ;
#35 = EDGE_LOOP ( 'NONE', ( #97, #95, #3, #100 ) ) ;
#36 = PRODUCT_DEFINITION_FORMATION_WITH_SPECIFIED_SOURCE ( 'ANY', '', #21, .NOT_KNOWN. ) ;
#37 =( BOUNDED_CURVE ( )  B_SPLINE_CURVE ( 3, ( #4, #103, #118, #72 ),
 .UNSPECIFIED., .F., .F. ) 
 B_SPLINE_CURVE_WITH_KNOTS ( ( 4, 4 ),
 ( 1.570796326794896558, 4.712388980384689674 ),
 .UNSPECIFIED. ) 
 CURVE ( )  GEOMETRIC_REPRESENTATION_ITEM ( )  RATIONAL_B_SPLINE_CURVE ( ( 1.000000000000000000, 0.3333333333333333703, 0.3333333333333333703, 1.000000000000000000 ) ) 
 REPRESENTATION_ITEM ( '' )  );
#38 = PERSON ( 'UNSPECIFIED', 'UNSPECIFIED', 'UNSPECIFIED', ('UNSPECIFIED'), ('UNSPECIFIED'), ('UNSPECIFIED') ) ;
#39 = DATE_AND_TIME ( #12, #52 ) ;
#40 = VERTEX_POINT ( 'NONE', #155 ) ;
#41 = COORDINATED_UNIVERSAL_TIME_OFFSET ( 5, 0, .BEHIND. ) ;
#42 = ORGANIZATION ( 'UNSPECIFIED', 'UNSPECIFIED', '' ) ;
#43 = ADVANCED_FACE ( 'NONE', ( #168 ), #91, .T. ) ;
#44 = CC_DESIGN_PERSON_AND_ORGANIZATION_ASSIGNMENT ( #20, #173, ( #36 ) ) ;
#45 = CARTESIAN_POINT ( 'NONE',  ( 25.00000000000000000, 0.000000000000000000, -3.436343389537585669 ) ) ;
#46 = APPLICATION_PROTOCOL_DEFINITION ( 'international standard', 'config_control_design', 1994, #50 ) ;
#47 = DIRECTION ( 'NONE',  ( -0.000000000000000000, -0.000000000000000000, 1.000000000000000000 ) ) ;
#48 = APPROVAL_ROLE ( '' ) ;
#49 = APPROVAL_STATUS ( 'not_yet_approved' ) ;
#50 = APPLICATION_CONTEXT ( 'configuration controlled 3d designs of mechanical parts and assemblies' ) ;
#51 = APPROVAL_PERSON_ORGANIZATION ( #152, #79, #121 ) ;
#52 = LOCAL_TIME ( 14, 56, 48.00000000000000000, #86 ) ;
#53 = SECURITY_CLASSIFICATION ( '', '', #132 ) ;
#54 = ORIENTED_EDGE ( 'NONE', *, *, #33, .T. ) ;
#55 = PRODUCT_RELATED_PRODUCT_CATEGORY ( 'detail', '', ( #21 ) ) ;
#56 = CALENDAR_DATE ( 2021, 28, 6 ) ;
#57 = PLANE ( 'NONE',  #133 ) ;
#58 = PERSON_AND_ORGANIZATION ( #38, #42 ) ;
#59 = APPLICATION_PROTOCOL_DEFINITION ( 'international standard', 'config_control_design', 1994, #32 ) ;
#60 = DIRECTION ( 'NONE',  ( 0.000000000000000000, 0.000000000000000000, 1.000000000000000000 ) ) ;
#61 = FACE_OUTER_BOUND ( 'NONE', #107, .T. ) ;
#62 = CARTESIAN_POINT ( 'NONE',  ( -25.00000000000000000, 3.061616997868383043E-15, -3.218171694768792612 ) ) ;
#63 = ORIENTED_EDGE ( 'NONE', *, *, #104, .F. ) ;
#64 = MANIFOLD_SOLID_BREP ( 'Cut-Extrude1', #117 ) ;
#65 = COORDINATED_UNIVERSAL_TIME_OFFSET ( 5, 0, .BEHIND. ) ;
#66 = VECTOR ( 'NONE', #143, 1000.000000000000000 ) ;
#67 = CC_DESIGN_APPROVAL ( #13, ( #36 ) ) ;
#68 = ORIENTED_EDGE ( 'NONE', *, *, #81, .F. ) ;
#69 = DIRECTION ( 'NONE',  ( 0.000000000000000000, 0.008726535498366857005, -0.9999619230641714207 ) ) ;
#70 = CC_DESIGN_DATE_AND_TIME_ASSIGNMENT ( #39, #71, ( #26 ) ) ;
#71 = DATE_TIME_ROLE ( 'creation_date' ) ;
#72 = CARTESIAN_POINT ( 'NONE',  ( -25.00000000000000000, 3.061616997868383043E-15, -3.218171694768792612 ) ) ;
#73 = APPROVAL_STATUS ( 'not_yet_approved' ) ;
#74 = CARTESIAN_POINT ( 'NONE',  ( -25.00000000000002132, 50.00000000000000000, -2.781828305231206944 ) ) ;
#75 = PERSON_AND_ORGANIZATION ( #38, #42 ) ;
#76 = DIRECTION ( 'NONE',  ( 1.000000000000000000, 0.000000000000000000, 0.000000000000000000 ) ) ;
#77 = AXIS2_PLACEMENT_3D ( 'NONE', #162, #60, #76 ) ;
#78 = CYLINDRICAL_SURFACE ( 'NONE', #126, 25.00000000000000000 ) ;
#79 = APPROVAL ( #73, 'UNSPECIFIED' ) ;
#80 = CALENDAR_DATE ( 2021, 28, 6 ) ;
#81 = EDGE_CURVE ( 'NONE', #1, #40, #37, .T. ) ;
#82 = DIRECTION ( 'NONE',  ( 0.000000000000000000, 0.000000000000000000, 1.000000000000000000 ) ) ;
#83 = LINE ( 'NONE', #45, #145 ) ;
#84 = APPROVAL_DATE_TIME ( #122, #79 ) ;
#85 = DIRECTION ( 'NONE',  ( 0.000000000000000000, 0.9999619230641713097, 0.008726535498366855270 ) ) ;
#86 = COORDINATED_UNIVERSAL_TIME_OFFSET ( 5, 0, .BEHIND. ) ;
#87 = CARTESIAN_POINT ( 'NONE',  ( -25.00000000000000000, 3.061616997868383043E-15, -3.436343389537585669 ) ) ;
#88 =( NAMED_UNIT ( * ) SI_UNIT ( $, .STERADIAN. ) SOLID_ANGLE_UNIT ( ) );
#89 = APPROVAL_STATUS ( 'not_yet_approved' ) ;
#90 = CC_DESIGN_APPROVAL ( #79, ( #53 ) ) ;
#91 = CYLINDRICAL_SURFACE ( 'NONE', #151, 25.00000000000000000 ) ;
#92 = VERTEX_POINT ( 'NONE', #31 ) ;
#93 = APPROVAL_PERSON_ORGANIZATION ( #153, #13, #48 ) ;
#94 = CIRCLE ( 'NONE', #125, 25.00000000000000000 ) ;
#95 = ORIENTED_EDGE ( 'NONE', *, *, #104, .T. ) ;
#96 = PERSON_AND_ORGANIZATION ( #38, #42 ) ;
#97 = ORIENTED_EDGE ( 'NONE', *, *, #112, .F. ) ;
#98 = CARTESIAN_POINT ( 'NONE',  ( 25.00000000000000000, 0.000000000000000000, -3.218171694768792612 ) ) ;
#99 = CARTESIAN_POINT ( 'NONE',  ( 0.000000000000000000, 0.000000000000000000, 0.000000000000000000 ) ) ;
#100 = ORIENTED_EDGE ( 'NONE', *, *, #110, .F. ) ;
#101 = UNCERTAINTY_MEASURE_WITH_UNIT (LENGTH_MEASURE( 1.000000000000000082E-05 ), #130, 'distance_accuracy_value', 'NONE');
#102 = PERSON_AND_ORGANIZATION_ROLE ( 'classification_officer' ) ;
#103 = CARTESIAN_POINT ( 'NONE',  ( 25.00000000000001066, -50.00000000000000000, -3.654515084306378281 ) ) ;
#104 = EDGE_CURVE ( 'NONE', #40, #92, #167, .T. ) ;
#105 =( NAMED_UNIT ( * ) PLANE_ANGLE_UNIT ( ) SI_UNIT ( $, .RADIAN. ) );
#106 = ORIENTED_EDGE ( 'NONE', *, *, #81, .T. ) ;
#107 = EDGE_LOOP ( 'NONE', ( #106, #113 ) ) ;
#108 = CIRCLE ( 'NONE', #77, 25.00000000000000000 ) ;
#109 = LOCAL_TIME ( 14, 56, 48.00000000000000000, #41 ) ;
#110 = EDGE_CURVE ( 'NONE', #1, #141, #83, .T. ) ;
#111 = PERSON_AND_ORGANIZATION ( #38, #42 ) ;
#112 = EDGE_CURVE ( 'NONE', #40, #1, #135, .T. ) ;
#113 = ORIENTED_EDGE ( 'NONE', *, *, #112, .T. ) ;
#114 = DIRECTION ( 'NONE',  ( 1.000000000000000000, 0.000000000000000000, 0.000000000000000000 ) ) ;
#115 = SHAPE_DEFINITION_REPRESENTATION ( #137, #147 ) ;
#116 = DIRECTION ( 'NONE',  ( -0.000000000000000000, -0.000000000000000000, 1.000000000000000000 ) ) ;
#117 = CLOSED_SHELL ( 'NONE', ( #139, #16, #43, #28 ) ) ;
#118 = CARTESIAN_POINT ( 'NONE',  ( -25.00000000000000000, -50.00000000000000000, -3.654515084306378281 ) ) ;
#119 = LOCAL_TIME ( 14, 56, 48.00000000000000000, #129 ) ;
#120 = DATE_TIME_ROLE ( 'classification_date' ) ;
#121 = APPROVAL_ROLE ( '' ) ;
#122 = DATE_AND_TIME ( #80, #109 ) ;
#123 = EDGE_CURVE ( 'NONE', #92, #141, #108, .T. ) ;
#124 = PERSON_AND_ORGANIZATION ( #38, #42 ) ;
#125 = AXIS2_PLACEMENT_3D ( 'NONE', #99, #17, #114 ) ;
#126 = AXIS2_PLACEMENT_3D ( 'NONE', #160, #158, #30 ) ;
#127 = CARTESIAN_POINT ( 'NONE',  ( 0.000000000000000000, 0.000000000000000000, -3.436343389537585669 ) ) ;
#128 = DIRECTION ( 'NONE',  ( 1.000000000000000000, 0.000000000000000000, 0.000000000000000000 ) ) ;
#129 = COORDINATED_UNIVERSAL_TIME_OFFSET ( 5, 0, .BEHIND. ) ;
#130 =( LENGTH_UNIT ( ) NAMED_UNIT ( * ) SI_UNIT ( .MILLI., .METRE. ) );
#131 = EDGE_LOOP ( 'NONE', ( #54, #150 ) ) ;
#132 = SECURITY_CLASSIFICATION_LEVEL ( 'unclassified' ) ;
#133 = AXIS2_PLACEMENT_3D ( 'NONE', #19, #82, #15 ) ;
#134 = CC_DESIGN_PERSON_AND_ORGANIZATION_ASSIGNMENT ( #75, #102, ( #53 ) ) ;
#135 =( BOUNDED_CURVE ( )  B_SPLINE_CURVE ( 3, ( #62, #74, #172, #161 ),
 .UNSPECIFIED., .F., .F. ) 
 B_SPLINE_CURVE_WITH_KNOTS ( ( 4, 4 ),
 ( 4.712388980384689674, 7.853981633974482790 ),
 .UNSPECIFIED. ) 
 CURVE ( )  GEOMETRIC_REPRESENTATION_ITEM ( )  RATIONAL_B_SPLINE_CURVE ( ( 1.000000000000000000, 0.3333333333333333703, 0.3333333333333333703, 1.000000000000000000 ) ) 
 REPRESENTATION_ITEM ( '' )  );
#136 = LOCAL_TIME ( 14, 56, 48.00000000000000000, #65 ) ;
#137 = PRODUCT_DEFINITION_SHAPE ( 'NONE', 'NONE',  #26 ) ;
#138 = AXIS2_PLACEMENT_3D ( 'NONE', #170, #69, #85 ) ;
#139 = ADVANCED_FACE ( 'NONE', ( #163 ), #78, .T. ) ;
#140 = DIRECTION ( 'NONE',  ( 1.000000000000000000, 0.000000000000000000, 0.000000000000000000 ) ) ;
#141 = VERTEX_POINT ( 'NONE', #144 ) ;
#142 = DESIGN_CONTEXT ( 'detailed design', #50, 'design' ) ;
#143 = DIRECTION ( 'NONE',  ( -0.000000000000000000, -0.000000000000000000, 1.000000000000000000 ) ) ;
#144 = CARTESIAN_POINT ( 'NONE',  ( 25.00000000000000000, 0.000000000000000000, 0.000000000000000000 ) ) ;
#145 = VECTOR ( 'NONE', #47, 1000.000000000000000 ) ;
#146 = PERSON_AND_ORGANIZATION_ROLE ( 'design_supplier' ) ;
#147 = ADVANCED_BREP_SHAPE_REPRESENTATION ( 'Web Model 34243_17668', ( #64, #8 ), #2 ) ;
#148 = DATE_AND_TIME ( #156, #11 ) ;
#149 = APPROVAL_DATE_TIME ( #9, #13 ) ;
#150 = ORIENTED_EDGE ( 'NONE', *, *, #123, .T. ) ;
#151 = AXIS2_PLACEMENT_3D ( 'NONE', #127, #116, #140 ) ;
#152 = PERSON_AND_ORGANIZATION ( #38, #42 ) ;
#153 = PERSON_AND_ORGANIZATION ( #38, #42 ) ;
#154 = PLANE ( 'NONE',  #138 ) ;
#155 = CARTESIAN_POINT ( 'NONE',  ( -25.00000000000000000, 3.061616997868383043E-15, -3.218171694768792612 ) ) ;
#156 = CALENDAR_DATE ( 2021, 28, 6 ) ;
#157 = CC_DESIGN_PERSON_AND_ORGANIZATION_ASSIGNMENT ( #124, #5, ( #21 ) ) ;
#158 = DIRECTION ( 'NONE',  ( -0.000000000000000000, -0.000000000000000000, 1.000000000000000000 ) ) ;
#159 = APPROVAL_ROLE ( '' ) ;
#160 = CARTESIAN_POINT ( 'NONE',  ( 0.000000000000000000, 0.000000000000000000, -3.436343389537585669 ) ) ;
#161 = CARTESIAN_POINT ( 'NONE',  ( 25.00000000000000000, 0.000000000000000000, -3.218171694768792612 ) ) ;
#162 = CARTESIAN_POINT ( 'NONE',  ( 0.000000000000000000, 0.000000000000000000, 0.000000000000000000 ) ) ;
#163 = FACE_OUTER_BOUND ( 'NONE', #35, .T. ) ;
#164 = APPROVAL ( #89, 'UNSPECIFIED' ) ;
#165 = APPROVAL_DATE_TIME ( #23, #164 ) ;
#166 = CC_DESIGN_PERSON_AND_ORGANIZATION_ASSIGNMENT ( #111, #146, ( #36 ) ) ;
#167 = LINE ( 'NONE', #87, #66 ) ;
#168 = FACE_OUTER_BOUND ( 'NONE', #169, .T. ) ;
#169 = EDGE_LOOP ( 'NONE', ( #63, #68, #14, #29 ) ) ;
#170 = CARTESIAN_POINT ( 'NONE',  ( 25.00000000000000000, 25.00000000000000000, -3.000000000000000000 ) ) ;
#171 = APPROVAL_PERSON_ORGANIZATION ( #96, #164, #159 ) ;
#172 = CARTESIAN_POINT ( 'NONE',  ( 25.00000000000001066, 50.00000000000000000, -2.781828305231206944 ) ) ;
#173 = PERSON_AND_ORGANIZATION_ROLE ( 'creator' ) ;
#174 = CC_DESIGN_DATE_AND_TIME_ASSIGNMENT ( #148, #120, ( #53 ) ) ;
#175 = CC_DESIGN_PERSON_AND_ORGANIZATION_ASSIGNMENT ( #58, #22, ( #26 ) ) ;
ENDSEC;
END-ISO-10303-21;
