ISO-10303-21;
HEADER;
FILE_DESCRIPTION (( 'STEP AP203' ),
    '1' );
FILE_NAME ('Web Model 45074.STEP',
    '2017-01-31T15:17:16',
    ( '' ),
    ( '' ),
    'SwSTEP 2.0',
    'SolidWorks 2016',
    '' );
FILE_SCHEMA (( 'CONFIG_CONTROL_DESIGN' ));
ENDSEC;

DATA;
#1 = DATE_AND_TIME ( #123, #25 ) ;
#2 = AXIS2_PLACEMENT_3D ( 'NONE', #161, #56, #24 ) ;
#3 = APPLICATION_PROTOCOL_DEFINITION ( 'international standard', 'config_control_design', 1994, #37 ) ;
#4 = CC_DESIGN_PERSON_AND_ORGANIZATION_ASSIGNMENT ( #78, #18, ( #173 ) ) ;
#5 = APPROVAL_ROLE ( '' ) ;
#6 = CIRCLE ( 'NONE', #50, 5.000000000000000000 ) ;
#7 = EDGE_CURVE ( 'NONE', #129, #63, #174, .T. ) ;
#8 = EDGE_LOOP ( 'NONE', ( #16, #163, #31, #158 ) ) ;
#9 = CARTESIAN_POINT ( 'NONE',  ( -5.000000000000000000, 6.123233995736766300E-016, -2.000000000000000000 ) ) ;
#10 = CARTESIAN_POINT ( 'NONE',  ( 0.0000000000000000000, 0.0000000000000000000, -2.000000000000000000 ) ) ;
#11 = CARTESIAN_POINT ( 'NONE',  ( 0.0000000000000000000, 0.0000000000000000000, 0.0000000000000000000 ) ) ;
#12 = CC_DESIGN_APPROVAL ( #94, ( #173 ) ) ;
#13 = PERSON_AND_ORGANIZATION ( #87, #81 ) ;
#14 = ORIENTED_EDGE ( 'NONE', *, *, #102, .F. ) ;
#15 = APPROVAL ( #114, 'UNSPECIFIED' ) ;
#16 = ORIENTED_EDGE ( 'NONE', *, *, #143, .T. ) ;
#17 = EDGE_CURVE ( 'NONE', #63, #61, #165, .T. ) ;
#18 = PERSON_AND_ORGANIZATION_ROLE ( 'creator' ) ;
#19 = DIRECTION ( 'NONE',  ( 1.000000000000000000, 0.0000000000000000000, 0.0000000000000000000 ) ) ;
#20 = MANIFOLD_SOLID_BREP ( 'Extrude1', #170 ) ;
#21 = DATE_AND_TIME ( #89, #59 ) ;
#22 = CALENDAR_DATE ( 2017, 31, 1 ) ;
#23 = ORIENTED_EDGE ( 'NONE', *, *, #120, .F. ) ;
#24 = DIRECTION ( 'NONE',  ( 1.000000000000000000, 0.0000000000000000000, 0.0000000000000000000 ) ) ;
#25 = LOCAL_TIME ( 10, 17, 15.00000000000000000, #65 ) ;
#26 = ADVANCED_FACE ( 'NONE', ( #140 ), #159, .T. ) ;
#27 = CC_DESIGN_PERSON_AND_ORGANIZATION_ASSIGNMENT ( #33, #115, ( #128 ) ) ;
#28 = DIRECTION ( 'NONE',  ( 1.000000000000000000, 0.0000000000000000000, 0.0000000000000000000 ) ) ;
#29 = VECTOR ( 'NONE', #84, 1000.000000000000000 ) ;
#30 =( GEOMETRIC_REPRESENTATION_CONTEXT ( 3 ) GLOBAL_UNCERTAINTY_ASSIGNED_CONTEXT ( ( #125 ) ) GLOBAL_UNIT_ASSIGNED_CONTEXT ( ( #79, #52, #93 ) ) REPRESENTATION_CONTEXT ( 'NONE', 'WORKASPACE' ) );
#31 = ORIENTED_EDGE ( 'NONE', *, *, #17, .F. ) ;
#32 = PERSON_AND_ORGANIZATION ( #87, #81 ) ;
#33 = PERSON_AND_ORGANIZATION ( #87, #81 ) ;
#34 = CIRCLE ( 'NONE', #53, 5.000000000000000000 ) ;
#35 = CC_DESIGN_DATE_AND_TIME_ASSIGNMENT ( #96, #139, ( #101 ) ) ;
#36 = APPLICATION_PROTOCOL_DEFINITION ( 'international standard', 'config_control_design', 1994, #156 ) ;
#37 = APPLICATION_CONTEXT ( 'configuration controlled 3d designs of mechanical parts and assemblies' ) ;
#38 = PRODUCT_RELATED_PRODUCT_CATEGORY ( 'detail', '', ( #68 ) ) ;
#39 = SECURITY_CLASSIFICATION_LEVEL ( 'unclassified' ) ;
#40 = FACE_OUTER_BOUND ( 'NONE', #8, .T. ) ;
#41 = CALENDAR_DATE ( 2017, 31, 1 ) ;
#42 = CC_DESIGN_PERSON_AND_ORGANIZATION_ASSIGNMENT ( #172, #133, ( #101 ) ) ;
#43 = AXIS2_PLACEMENT_3D ( 'NONE', #169, #107, #146 ) ;
#44 = PERSON_AND_ORGANIZATION ( #87, #81 ) ;
#45 = CARTESIAN_POINT ( 'NONE',  ( 0.0000000000000000000, 0.0000000000000000000, 0.0000000000000000000 ) ) ;
#46 = DIRECTION ( 'NONE',  ( 0.0000000000000000000, 0.0000000000000000000, 1.000000000000000000 ) ) ;
#47 = DIRECTION ( 'NONE',  ( 0.0000000000000000000, 0.0000000000000000000, 1.000000000000000000 ) ) ;
#48 = CARTESIAN_POINT ( 'NONE',  ( 0.0000000000000000000, 0.0000000000000000000, -2.000000000000000000 ) ) ;
#49 = APPROVAL_PERSON_ORGANIZATION ( #32, #62, #5 ) ;
#50 = AXIS2_PLACEMENT_3D ( 'NONE', #48, #46, #58 ) ;
#51 = AXIS2_PLACEMENT_3D ( 'NONE', #11, #85, #168 ) ;
#52 =( NAMED_UNIT ( * ) PLANE_ANGLE_UNIT ( ) SI_UNIT ( $, .RADIAN. ) );
#53 = AXIS2_PLACEMENT_3D ( 'NONE', #45, #47, #19 ) ;
#54 = CARTESIAN_POINT ( 'NONE',  ( 5.000000000000000000, 0.0000000000000000000, -2.000000000000000000 ) ) ;
#55 = ORIENTED_EDGE ( 'NONE', *, *, #7, .T. ) ;
#56 = DIRECTION ( 'NONE',  ( 0.0000000000000000000, 0.0000000000000000000, 1.000000000000000000 ) ) ;
#57 = AXIS2_PLACEMENT_3D ( 'NONE', #10, #121, #70 ) ;
#58 = DIRECTION ( 'NONE',  ( 1.000000000000000000, 0.0000000000000000000, 0.0000000000000000000 ) ) ;
#59 = LOCAL_TIME ( 10, 17, 15.00000000000000000, #157 ) ;
#60 = CC_DESIGN_SECURITY_CLASSIFICATION ( #101, ( #173 ) ) ;
#61 = VERTEX_POINT ( 'NONE', #162 ) ;
#62 = APPROVAL ( #154, 'UNSPECIFIED' ) ;
#63 = VERTEX_POINT ( 'NONE', #122 ) ;
#64 = PERSON_AND_ORGANIZATION_ROLE ( 'design_owner' ) ;
#65 = COORDINATED_UNIVERSAL_TIME_OFFSET ( 5, 0, .BEHIND. ) ;
#66 = DIRECTION ( 'NONE',  ( 1.000000000000000000, 0.0000000000000000000, 0.0000000000000000000 ) ) ;
#67 = CYLINDRICAL_SURFACE ( 'NONE', #130, 5.000000000000000000 ) ;
#68 = PRODUCT ( 'Web Model 45074', 'Web Model 45074', '', ( #131 ) ) ;
#69 = SHAPE_DEFINITION_REPRESENTATION ( #144, #151 ) ;
#70 = DIRECTION ( 'NONE',  ( 1.000000000000000000, 0.0000000000000000000, -0.0000000000000000000 ) ) ;
#71 = AXIS2_PLACEMENT_3D ( 'NONE', #136, #108, #28 ) ;
#72 = ORIENTED_EDGE ( 'NONE', *, *, #17, .T. ) ;
#73 = DATE_AND_TIME ( #77, #82 ) ;
#74 = CC_DESIGN_APPROVAL ( #15, ( #101 ) ) ;
#75 = CC_DESIGN_PERSON_AND_ORGANIZATION_ASSIGNMENT ( #171, #64, ( #68 ) ) ;
#76 = EDGE_LOOP ( 'NONE', ( #91, #14 ) ) ;
#77 = CALENDAR_DATE ( 2017, 31, 1 ) ;
#78 = PERSON_AND_ORGANIZATION ( #87, #81 ) ;
#79 =( LENGTH_UNIT ( ) NAMED_UNIT ( * ) SI_UNIT ( .MILLI., .METRE. ) );
#80 = APPROVAL_ROLE ( '' ) ;
#81 = ORGANIZATION ( 'UNSPECIFIED', 'UNSPECIFIED', '' ) ;
#82 = LOCAL_TIME ( 10, 17, 15.00000000000000000, #141 ) ;
#83 = CC_DESIGN_PERSON_AND_ORGANIZATION_ASSIGNMENT ( #44, #155, ( #173 ) ) ;
#84 = DIRECTION ( 'NONE',  ( 0.0000000000000000000, 0.0000000000000000000, 1.000000000000000000 ) ) ;
#85 = DIRECTION ( 'NONE',  ( 0.0000000000000000000, 0.0000000000000000000, 1.000000000000000000 ) ) ;
#86 = ADVANCED_FACE ( 'NONE', ( #40 ), #67, .T. ) ;
#87 = PERSON ( 'UNSPECIFIED', 'UNSPECIFIED', 'UNSPECIFIED', ('UNSPECIFIED'), ('UNSPECIFIED'), ('UNSPECIFIED') ) ;
#88 = VECTOR ( 'NONE', #134, 1000.000000000000000 ) ;
#89 = CALENDAR_DATE ( 2017, 31, 1 ) ;
#90 = ORIENTED_EDGE ( 'NONE', *, *, #167, .T. ) ;
#91 = ORIENTED_EDGE ( 'NONE', *, *, #143, .F. ) ;
#92 = APPROVAL_STATUS ( 'not_yet_approved' ) ;
#93 =( NAMED_UNIT ( * ) SI_UNIT ( $, .STERADIAN. ) SOLID_ANGLE_UNIT ( ) );
#94 = APPROVAL ( #92, 'UNSPECIFIED' ) ;
#95 = APPROVAL_DATE_TIME ( #21, #15 ) ;
#96 = DATE_AND_TIME ( #22, #149 ) ;
#97 = EDGE_LOOP ( 'NONE', ( #23, #104, #55, #126 ) ) ;
#98 = CARTESIAN_POINT ( 'NONE',  ( 0.0000000000000000000, 0.0000000000000000000, -2.000000000000000000 ) ) ;
#99 = CARTESIAN_POINT ( 'NONE',  ( 5.000000000000000000, 0.0000000000000000000, -2.000000000000000000 ) ) ;
#100 = DIRECTION ( 'NONE',  ( 0.0000000000000000000, 0.0000000000000000000, 1.000000000000000000 ) ) ;
#101 = SECURITY_CLASSIFICATION ( '', '', #39 ) ;
#102 = EDGE_CURVE ( 'NONE', #119, #129, #110, .T. ) ;
#103 = APPROVAL_PERSON_ORGANIZATION ( #148, #94, #138 ) ;
#104 = ORIENTED_EDGE ( 'NONE', *, *, #102, .T. ) ;
#105 = CARTESIAN_POINT ( 'NONE',  ( 0.0000000000000000000, 0.0000000000000000000, 0.0000000000000000000 ) ) ;
#106 = LINE ( 'NONE', #9, #88 ) ;
#107 = DIRECTION ( 'NONE',  ( 0.0000000000000000000, 0.0000000000000000000, 1.000000000000000000 ) ) ;
#108 = DIRECTION ( 'NONE',  ( 0.0000000000000000000, 0.0000000000000000000, 1.000000000000000000 ) ) ;
#109 = DIRECTION ( 'NONE',  ( 1.000000000000000000, 0.0000000000000000000, 0.0000000000000000000 ) ) ;
#110 = CIRCLE ( 'NONE', #43, 5.000000000000000000 ) ;
#111 = LOCAL_TIME ( 10, 17, 15.00000000000000000, #175 ) ;
#112 = CYLINDRICAL_SURFACE ( 'NONE', #71, 5.000000000000000000 ) ;
#113 = APPROVAL_DATE_TIME ( #73, #62 ) ;
#114 = APPROVAL_STATUS ( 'not_yet_approved' ) ;
#115 = PERSON_AND_ORGANIZATION_ROLE ( 'creator' ) ;
#116 = AXIS2_PLACEMENT_3D ( 'NONE', #105, #132, #66 ) ;
#117 = DATE_TIME_ROLE ( 'creation_date' ) ;
#118 = APPROVAL_PERSON_ORGANIZATION ( #13, #15, #80 ) ;
#119 = VERTEX_POINT ( 'NONE', #147 ) ;
#120 = EDGE_CURVE ( 'NONE', #119, #61, #106, .T. ) ;
#121 = DIRECTION ( 'NONE',  ( 0.0000000000000000000, 0.0000000000000000000, 1.000000000000000000 ) ) ;
#122 = CARTESIAN_POINT ( 'NONE',  ( 5.000000000000000000, 0.0000000000000000000, 0.0000000000000000000 ) ) ;
#123 = CALENDAR_DATE ( 2017, 31, 1 ) ;
#124 = FACE_OUTER_BOUND ( 'NONE', #76, .T. ) ;
#125 = UNCERTAINTY_MEASURE_WITH_UNIT (LENGTH_MEASURE( 1.000000000000000100E-005 ), #79, 'distance_accuracy_value', 'NONE');
#126 = ORIENTED_EDGE ( 'NONE', *, *, #167, .F. ) ;
#127 = APPROVAL_DATE_TIME ( #1, #94 ) ;
#128 = PRODUCT_DEFINITION ( 'UNKNOWN', '', #173, #164 ) ;
#129 = VERTEX_POINT ( 'NONE', #99 ) ;
#130 = AXIS2_PLACEMENT_3D ( 'NONE', #98, #100, #109 ) ;
#131 = MECHANICAL_CONTEXT ( 'NONE', #37, 'mechanical' ) ;
#132 = DIRECTION ( 'NONE',  ( 0.0000000000000000000, 0.0000000000000000000, 1.000000000000000000 ) ) ;
#133 = PERSON_AND_ORGANIZATION_ROLE ( 'classification_officer' ) ;
#134 = DIRECTION ( 'NONE',  ( 0.0000000000000000000, 0.0000000000000000000, 1.000000000000000000 ) ) ;
#135 = ADVANCED_FACE ( 'NONE', ( #124 ), #160, .F. ) ;
#136 = CARTESIAN_POINT ( 'NONE',  ( 0.0000000000000000000, 0.0000000000000000000, -2.000000000000000000 ) ) ;
#137 = CC_DESIGN_APPROVAL ( #62, ( #128 ) ) ;
#138 = APPROVAL_ROLE ( '' ) ;
#139 = DATE_TIME_ROLE ( 'classification_date' ) ;
#140 = FACE_OUTER_BOUND ( 'NONE', #153, .T. ) ;
#141 = COORDINATED_UNIVERSAL_TIME_OFFSET ( 5, 0, .BEHIND. ) ;
#142 = FACE_OUTER_BOUND ( 'NONE', #97, .T. ) ;
#143 = EDGE_CURVE ( 'NONE', #129, #119, #6, .T. ) ;
#144 = PRODUCT_DEFINITION_SHAPE ( 'NONE', 'NONE',  #128 ) ;
#145 = ADVANCED_FACE ( 'NONE', ( #142 ), #112, .T. ) ;
#146 = DIRECTION ( 'NONE',  ( 1.000000000000000000, 0.0000000000000000000, 0.0000000000000000000 ) ) ;
#147 = CARTESIAN_POINT ( 'NONE',  ( -5.000000000000000000, 6.123233995736766300E-016, -2.000000000000000000 ) ) ;
#148 = PERSON_AND_ORGANIZATION ( #87, #81 ) ;
#149 = LOCAL_TIME ( 10, 17, 15.00000000000000000, #152 ) ;
#150 = CC_DESIGN_DATE_AND_TIME_ASSIGNMENT ( #166, #117, ( #128 ) ) ;
#151 = ADVANCED_BREP_SHAPE_REPRESENTATION ( 'Web Model 45074', ( #20, #116 ), #30 ) ;
#152 = COORDINATED_UNIVERSAL_TIME_OFFSET ( 5, 0, .BEHIND. ) ;
#153 = EDGE_LOOP ( 'NONE', ( #72, #90 ) ) ;
#154 = APPROVAL_STATUS ( 'not_yet_approved' ) ;
#155 = PERSON_AND_ORGANIZATION_ROLE ( 'design_supplier' ) ;
#156 = APPLICATION_CONTEXT ( 'configuration controlled 3d designs of mechanical parts and assemblies' ) ;
#157 = COORDINATED_UNIVERSAL_TIME_OFFSET ( 5, 0, .BEHIND. ) ;
#158 = ORIENTED_EDGE ( 'NONE', *, *, #7, .F. ) ;
#159 = PLANE ( 'NONE',  #51 ) ;
#160 = PLANE ( 'NONE',  #57 ) ;
#161 = CARTESIAN_POINT ( 'NONE',  ( 0.0000000000000000000, 0.0000000000000000000, 0.0000000000000000000 ) ) ;
#162 = CARTESIAN_POINT ( 'NONE',  ( -5.000000000000000000, 6.123233995736766300E-016, 0.0000000000000000000 ) ) ;
#163 = ORIENTED_EDGE ( 'NONE', *, *, #120, .T. ) ;
#164 = DESIGN_CONTEXT ( 'detailed design', #156, 'design' ) ;
#165 = CIRCLE ( 'NONE', #2, 5.000000000000000000 ) ;
#166 = DATE_AND_TIME ( #41, #111 ) ;
#167 = EDGE_CURVE ( 'NONE', #61, #63, #34, .T. ) ;
#168 = DIRECTION ( 'NONE',  ( 1.000000000000000000, 0.0000000000000000000, -0.0000000000000000000 ) ) ;
#169 = CARTESIAN_POINT ( 'NONE',  ( 0.0000000000000000000, 0.0000000000000000000, -2.000000000000000000 ) ) ;
#170 = CLOSED_SHELL ( 'NONE', ( #86, #145, #135, #26 ) ) ;
#171 = PERSON_AND_ORGANIZATION ( #87, #81 ) ;
#172 = PERSON_AND_ORGANIZATION ( #87, #81 ) ;
#173 = PRODUCT_DEFINITION_FORMATION_WITH_SPECIFIED_SOURCE ( 'ANY', '', #68, .NOT_KNOWN. ) ;
#174 = LINE ( 'NONE', #54, #29 ) ;
#175 = COORDINATED_UNIVERSAL_TIME_OFFSET ( 5, 0, .BEHIND. ) ;
ENDSEC;
END-ISO-10303-21;
