ISO-10303-21;
HEADER;
FILE_DESCRIPTION (( 'STEP AP203' ),
    '1' );
FILE_NAME ('Ø50mm High Energy Laser Line Polarizer_86708.step',
    '2018-07-19T13:01:45',
    ( '' ),
    ( '' ),
    'SwSTEP 2.0',
    'SolidWorks 2016',
    '' );
FILE_SCHEMA (( 'CONFIG_CONTROL_DESIGN' ));
ENDSEC;

DATA;
#1 = FACE_OUTER_BOUND ( 'NONE', #68, .T. ) ;
#2 = ORIENTED_EDGE ( 'NONE', *, *, #88, .T. ) ;
#3 = APPROVAL_STATUS ( 'not_yet_approved' ) ;
#4 = ORIENTED_EDGE ( 'NONE', *, *, #196, .F. ) ;
#5 = LOCAL_TIME ( 9, 1, 45.00000000000000000, #261 ) ;
#6 = FACE_OUTER_BOUND ( 'NONE', #133, .T. ) ;
#7 = DIRECTION ( 'NONE',  ( 0.0000000000000000000, 0.0000000000000000000, -1.000000000000000000 ) ) ;
#8 = DIRECTION ( 'NONE',  ( -0.0000000000000000000, -0.0000000000000000000, -1.000000000000000000 ) ) ;
#9 = DIRECTION ( 'NONE',  ( 0.7071067811865475700, 0.0000000000000000000, 0.7071067811865474600 ) ) ;
#10 = AXIS2_PLACEMENT_3D ( 'NONE', #232, #8, #115 ) ;
#11 = CARTESIAN_POINT ( 'NONE',  ( -0.8596363832680253800, 1.220614474678271000, -0.4867995799369356800 ) ) ;
#12 = EDGE_CURVE ( 'NONE', #48, #110, #21, .T. ) ;
#13 = APPROVAL_DATE_TIME ( #70, #177 ) ;
#14 = PRODUCT_DEFINITION ( 'UNKNOWN', '', #175, #156 ) ;
#15 = ORIENTED_EDGE ( 'NONE', *, *, #101, .F. ) ;
#16 = CARTESIAN_POINT ( 'NONE',  ( -0.8596363832680253800, 1.220614474678271000, -0.2575388198975657700 ) ) ;
#17 = DIRECTION ( 'NONE',  ( -0.0000000000000000000, -0.0000000000000000000, -1.000000000000000000 ) ) ;
#18 = ORIENTED_EDGE ( 'NONE', *, *, #101, .T. ) ;
#19 = ORIENTED_EDGE ( 'NONE', *, *, #24, .T. ) ;
#20 = LINE ( 'NONE', #95, #157 ) ;
#21 = LINE ( 'NONE', #228, #129 ) ;
#22 = APPROVAL ( #111, 'UNSPECIFIED' ) ;
#23 = PERSON_AND_ORGANIZATION_ROLE ( 'design_owner' ) ;
#24 = EDGE_CURVE ( 'NONE', #202, #110, #20, .T. ) ;
#25 = CIRCLE ( 'NONE', #258, 0.9842519685039370400 ) ;
#26 = EDGE_CURVE ( 'NONE', #50, #39, #266, .T. ) ;
#27 = CC_DESIGN_PERSON_AND_ORGANIZATION_ASSIGNMENT ( #85, #162, ( #14 ) ) ;
#28 = PERSON_AND_ORGANIZATION ( #210, #131 ) ;
#29 = FACE_OUTER_BOUND ( 'NONE', #144, .T. ) ;
#30 = DIRECTION ( 'NONE',  ( 0.0000000000000000000, 0.0000000000000000000, -1.000000000000000000 ) ) ;
#31 = PLANE ( 'NONE',  #276 ) ;
#32 = AXIS2_PLACEMENT_3D ( 'NONE', #16, #216, #127 ) ;
#33 = CARTESIAN_POINT ( 'NONE',  ( -0.8596363832680253800, 1.220614474678271000, -0.4867995799369356800 ) ) ;
#34 = EDGE_CURVE ( 'NONE', #151, #39, #200, .T. ) ;
#35 = CARTESIAN_POINT ( 'NONE',  ( 0.1176558728343374800, 1.220614474678271000, -0.2575388198975657700 ) ) ;
#36 = ADVANCED_FACE ( 'NONE', ( #1 ), #31, .F. ) ;
#37 = LINE ( 'NONE', #35, #86 ) ;
#38 = DIRECTION ( 'NONE',  ( -1.000000000000000000, 0.0000000000000000000, 0.0000000000000000000 ) ) ;
#39 = VERTEX_POINT ( 'NONE', #249 ) ;
#40 = DIRECTION ( 'NONE',  ( -0.0000000000000000000, -0.0000000000000000000, 1.000000000000000000 ) ) ;
#41 = LOCAL_TIME ( 9, 1, 45.00000000000000000, #197 ) ;
#42 = CONICAL_SURFACE ( 'NONE', #214, 0.9772922561023629200, 0.7853981633974385100 ) ;
#43 = CC_DESIGN_DATE_AND_TIME_ASSIGNMENT ( #118, #75, ( #14 ) ) ;
#44 = PERSON_AND_ORGANIZATION ( #210, #131 ) ;
#45 =( CONVERSION_BASED_UNIT ( 'INCH', #140 ) LENGTH_UNIT ( ) NAMED_UNIT ( #126 ) );
#46 = APPLICATION_PROTOCOL_DEFINITION ( 'international standard', 'config_control_design', 1994, #264 ) ;
#47 = CC_DESIGN_APPROVAL ( #22, ( #14 ) ) ;
#48 = VERTEX_POINT ( 'NONE', #208 ) ;
#49 = SHAPE_DEFINITION_REPRESENTATION ( #199, #76 ) ;
#50 = VERTEX_POINT ( 'NONE', #213 ) ;
#51 = CARTESIAN_POINT ( 'NONE',  ( 0.1246155852359116800, 1.220614474678271000, -0.4867995799369356800 ) ) ;
#52 =( NAMED_UNIT ( * ) PLANE_ANGLE_UNIT ( ) SI_UNIT ( $, .RADIAN. ) );
#53 = ORIENTED_EDGE ( 'NONE', *, *, #196, .T. ) ;
#54 = CARTESIAN_POINT ( 'NONE',  ( -0.8596363832680253800, 1.220614474678271000, -0.2644985322991401100 ) ) ;
#55 = ORIENTED_EDGE ( 'NONE', *, *, #123, .F. ) ;
#56 = DIRECTION ( 'NONE',  ( 0.0000000000000000000, 0.0000000000000000000, 1.000000000000000000 ) ) ;
#57 = DIRECTION ( 'NONE',  ( 1.000000000000000000, 0.0000000000000000000, 0.0000000000000000000 ) ) ;
#58 = EDGE_CURVE ( 'NONE', #87, #151, #257, .T. ) ;
#59 = CC_DESIGN_APPROVAL ( #194, ( #175 ) ) ;
#60 = ADVANCED_FACE ( 'NONE', ( #209 ), #42, .T. ) ;
#61 = DIRECTION ( 'NONE',  ( -0.0000000000000000000, -0.0000000000000000000, -1.000000000000000000 ) ) ;
#62 = DIRECTION ( 'NONE',  ( -0.0000000000000000000, -0.0000000000000000000, 1.000000000000000000 ) ) ;
#63 = DIRECTION ( 'NONE',  ( 0.0000000000000000000, 0.0000000000000000000, -1.000000000000000000 ) ) ;
#64 = CARTESIAN_POINT ( 'NONE',  ( -0.8596363832680253800, 1.220614474678271000, -0.2575388198975657700 ) ) ;
#65 = LOCAL_TIME ( 9, 1, 45.00000000000000000, #241 ) ;
#66 = CC_DESIGN_PERSON_AND_ORGANIZATION_ASSIGNMENT ( #44, #203, ( #175 ) ) ;
#67 = CONICAL_SURFACE ( 'NONE', #159, 0.9842519685039370400, 0.7853981633974482800 ) ;
#68 = EDGE_LOOP ( 'NONE', ( #277, #18 ) ) ;
#69 = APPLICATION_PROTOCOL_DEFINITION ( 'international standard', 'config_control_design', 1994, #178 ) ;
#70 = DATE_AND_TIME ( #135, #41 ) ;
#71 = COORDINATED_UNIVERSAL_TIME_OFFSET ( 5, 0, .BEHIND. ) ;
#72 = FACE_OUTER_BOUND ( 'NONE', #240, .T. ) ;
#73 = CC_DESIGN_PERSON_AND_ORGANIZATION_ASSIGNMENT ( #104, #116, ( #175 ) ) ;
#74 = DIRECTION ( 'NONE',  ( 0.0000000000000000000, 0.0000000000000000000, -1.000000000000000000 ) ) ;
#75 = DATE_TIME_ROLE ( 'creation_date' ) ;
#76 = ADVANCED_BREP_SHAPE_REPRESENTATION ( '+50mm High Energy Laser Line Polarizer_86708', ( #193, #220 ), #238 ) ;
#77 = DIRECTION ( 'NONE',  ( -1.000000000000000000, 0.0000000000000000000, 0.0000000000000000000 ) ) ;
#78 = AXIS2_PLACEMENT_3D ( 'NONE', #233, #169, #149 ) ;
#79 = CARTESIAN_POINT ( 'NONE',  ( -1.836928639370388300, 1.220614474678271000, -0.2575388198975657700 ) ) ;
#80 = CARTESIAN_POINT ( 'NONE',  ( -1.843888351771962400, 1.220614474678271000, -0.2644985322991401100 ) ) ;
#81 = ORIENTED_EDGE ( 'NONE', *, *, #26, .F. ) ;
#82 = CARTESIAN_POINT ( 'NONE',  ( -0.8596363832680253800, 1.220614474678271000, -0.4867995799369356800 ) ) ;
#83 = CARTESIAN_POINT ( 'NONE',  ( -0.8596363832680253800, 1.220614474678271000, -0.2575388198975657700 ) ) ;
#84 = EDGE_CURVE ( 'NONE', #48, #50, #217, .T. ) ;
#85 = PERSON_AND_ORGANIZATION ( #210, #131 ) ;
#86 = VECTOR ( 'NONE', #122, 39.37007874015748100 ) ;
#87 = VERTEX_POINT ( 'NONE', #185 ) ;
#88 = EDGE_CURVE ( 'NONE', #202, #151, #25, .T. ) ;
#89 = APPROVAL_ROLE ( '' ) ;
#90 = EDGE_CURVE ( 'NONE', #151, #202, #188, .T. ) ;
#91 = DIRECTION ( 'NONE',  ( 1.000000000000000000, 0.0000000000000000000, 0.0000000000000000000 ) ) ;
#92 = SECURITY_CLASSIFICATION ( '', '', #260 ) ;
#93 = COORDINATED_UNIVERSAL_TIME_OFFSET ( 5, 0, .BEHIND. ) ;
#94 = CONICAL_SURFACE ( 'NONE', #190, 0.9772922561023629200, 0.7853981633974385100 ) ;
#95 = CARTESIAN_POINT ( 'NONE',  ( 0.1246155852359116800, 1.220614474678271000, -0.2575388198975657700 ) ) ;
#96 = CIRCLE ( 'NONE', #224, 0.9772922561023629200 ) ;
#97 = DIRECTION ( 'NONE',  ( 1.000000000000000000, 0.0000000000000000000, 0.0000000000000000000 ) ) ;
#98 = CARTESIAN_POINT ( 'NONE',  ( 0.1246155852359116800, 1.220614474678271000, -0.2644985322991401100 ) ) ;
#99 = DIRECTION ( 'NONE',  ( -0.0000000000000000000, -0.0000000000000000000, 1.000000000000000000 ) ) ;
#100 = CALENDAR_DATE ( 2018, 19, 7 ) ;
#101 = EDGE_CURVE ( 'NONE', #50, #48, #146, .T. ) ;
#102 = EDGE_LOOP ( 'NONE', ( #81, #181, #206, #55 ) ) ;
#103 = CC_DESIGN_APPROVAL ( #177, ( #92 ) ) ;
#104 = PERSON_AND_ORGANIZATION ( #210, #131 ) ;
#105 = CIRCLE ( 'NONE', #78, 0.9772922561023629200 ) ;
#106 = ORIENTED_EDGE ( 'NONE', *, *, #90, .F. ) ;
#107 =( LENGTH_UNIT ( ) NAMED_UNIT ( * ) SI_UNIT ( $, .METRE. ) );
#108 = APPROVAL_ROLE ( '' ) ;
#109 = CALENDAR_DATE ( 2018, 19, 7 ) ;
#110 = VERTEX_POINT ( 'NONE', #51 ) ;
#111 = APPROVAL_STATUS ( 'not_yet_approved' ) ;
#112 = UNCERTAINTY_MEASURE_WITH_UNIT (LENGTH_MEASURE( 1.000000000000000100E-005 ), #45, 'distance_accuracy_value', 'NONE');
#113 = CALENDAR_DATE ( 2018, 19, 7 ) ;
#114 = CONICAL_SURFACE ( 'NONE', #278, 0.9842519685039370400, 0.7853981633974482800 ) ;
#115 = DIRECTION ( 'NONE',  ( 1.000000000000000000, 0.0000000000000000000, 0.0000000000000000000 ) ) ;
#116 = PERSON_AND_ORGANIZATION_ROLE ( 'creator' ) ;
#117 = DIRECTION ( 'NONE',  ( 1.000000000000000000, 0.0000000000000000000, -0.0000000000000000000 ) ) ;
#118 = DATE_AND_TIME ( #243, #256 ) ;
#119 = ORIENTED_EDGE ( 'NONE', *, *, #58, .F. ) ;
#120 = CARTESIAN_POINT ( 'NONE',  ( -0.8596363832680253800, 1.220614474678271000, -0.2575388198975657700 ) ) ;
#121 = DIRECTION ( 'NONE',  ( 1.000000000000000000, 0.0000000000000000000, 0.0000000000000000000 ) ) ;
#122 = DIRECTION ( 'NONE',  ( 0.7071067811865405800, 8.659560562354847800E-017, -0.7071067811865544600 ) ) ;
#123 = EDGE_CURVE ( 'NONE', #39, #110, #153, .T. ) ;
#124 = ORIENTED_EDGE ( 'NONE', *, *, #172, .T. ) ;
#125 = DIRECTION ( 'NONE',  ( 1.000000000000000000, 0.0000000000000000000, 0.0000000000000000000 ) ) ;
#126 = DIMENSIONAL_EXPONENTS ( 1.000000000000000000, 0.0000000000000000000, 0.0000000000000000000, 0.0000000000000000000, 0.0000000000000000000, 0.0000000000000000000, 0.0000000000000000000 ) ;
#127 = DIRECTION ( 'NONE',  ( 1.000000000000000000, 0.0000000000000000000, -0.0000000000000000000 ) ) ;
#128 = ADVANCED_FACE ( 'NONE', ( #221 ), #94, .T. ) ;
#129 = VECTOR ( 'NONE', #9, 39.37007874015748100 ) ;
#130 = CC_DESIGN_PERSON_AND_ORGANIZATION_ASSIGNMENT ( #229, #259, ( #92 ) ) ;
#131 = ORGANIZATION ( 'UNSPECIFIED', 'UNSPECIFIED', '' ) ;
#132 = FACE_OUTER_BOUND ( 'NONE', #102, .T. ) ;
#133 = EDGE_LOOP ( 'NONE', ( #176, #19, #222, #154 ) ) ;
#134 = APPROVAL_STATUS ( 'not_yet_approved' ) ;
#135 = CALENDAR_DATE ( 2018, 19, 7 ) ;
#136 = ORIENTED_EDGE ( 'NONE', *, *, #26, .T. ) ;
#137 = DATE_TIME_ROLE ( 'classification_date' ) ;
#138 = CLOSED_SHELL ( 'NONE', ( #128, #191, #268, #252, #272, #36, #148, #60 ) ) ;
#139 =( NAMED_UNIT ( * ) SI_UNIT ( $, .STERADIAN. ) SOLID_ANGLE_UNIT ( ) );
#140 = LENGTH_MEASURE_WITH_UNIT ( LENGTH_MEASURE( 0.02539999999999999900 ), #107 );
#141 = VECTOR ( 'NONE', #163, 39.37007874015748100 ) ;
#142 = EDGE_CURVE ( 'NONE', #230, #202, #37, .T. ) ;
#143 = PRODUCT ( 'Ø50mm High Energy Laser Line Polarizer_86708', 'Ø50mm High Energy Laser Line Polarizer_86708', '', ( #246 ) ) ;
#144 = EDGE_LOOP ( 'NONE', ( #124, #53 ) ) ;
#145 = DIRECTION ( 'NONE',  ( -0.0000000000000000000, -0.0000000000000000000, -1.000000000000000000 ) ) ;
#146 = CIRCLE ( 'NONE', #207, 0.9772922561023620300 ) ;
#147 = EDGE_LOOP ( 'NONE', ( #168, #2, #171, #211 ) ) ;
#148 = ADVANCED_FACE ( 'NONE', ( #132 ), #67, .T. ) ;
#149 = DIRECTION ( 'NONE',  ( 1.000000000000000000, 0.0000000000000000000, 0.0000000000000000000 ) ) ;
#150 = CYLINDRICAL_SURFACE ( 'NONE', #262, 0.9842519685039370400 ) ;
#151 = VERTEX_POINT ( 'NONE', #80 ) ;
#152 = APPROVAL_DATE_TIME ( #226, #22 ) ;
#153 = CIRCLE ( 'NONE', #250, 0.9842519685039370400 ) ;
#154 = ORIENTED_EDGE ( 'NONE', *, *, #34, .F. ) ;
#155 = DATE_AND_TIME ( #109, #65 ) ;
#156 = DESIGN_CONTEXT ( 'detailed design', #178, 'design' ) ;
#157 = VECTOR ( 'NONE', #245, 39.37007874015748100 ) ;
#158 = EDGE_CURVE ( 'NONE', #110, #39, #244, .T. ) ;
#159 = AXIS2_PLACEMENT_3D ( 'NONE', #215, #62, #125 ) ;
#160 = DATE_AND_TIME ( #113, #173 ) ;
#161 = DIRECTION ( 'NONE',  ( 1.000000000000000000, 0.0000000000000000000, 0.0000000000000000000 ) ) ;
#162 = PERSON_AND_ORGANIZATION_ROLE ( 'creator' ) ;
#163 = DIRECTION ( 'NONE',  ( -0.7071067811865405800, 0.0000000000000000000, -0.7071067811865544600 ) ) ;
#164 = APPROVAL_DATE_TIME ( #160, #194 ) ;
#165 = DIRECTION ( 'NONE',  ( -1.000000000000000000, 0.0000000000000000000, 0.0000000000000000000 ) ) ;
#166 = VECTOR ( 'NONE', #145, 39.37007874015748100 ) ;
#167 = DIRECTION ( 'NONE',  ( 0.0000000000000000000, 0.0000000000000000000, 1.000000000000000000 ) ) ;
#168 = ORIENTED_EDGE ( 'NONE', *, *, #24, .F. ) ;
#169 = DIRECTION ( 'NONE',  ( 0.0000000000000000000, 0.0000000000000000000, 1.000000000000000000 ) ) ;
#170 = ORIENTED_EDGE ( 'NONE', *, *, #88, .F. ) ;
#171 = ORIENTED_EDGE ( 'NONE', *, *, #34, .T. ) ;
#172 = EDGE_CURVE ( 'NONE', #87, #230, #96, .T. ) ;
#173 = LOCAL_TIME ( 9, 1, 45.00000000000000000, #71 ) ;
#174 = CYLINDRICAL_SURFACE ( 'NONE', #275, 0.9842519685039370400 ) ;
#175 = PRODUCT_DEFINITION_FORMATION_WITH_SPECIFIED_SOURCE ( 'ANY', '', #143, .NOT_KNOWN. ) ;
#176 = ORIENTED_EDGE ( 'NONE', *, *, #90, .T. ) ;
#177 = APPROVAL ( #3, 'UNSPECIFIED' ) ;
#178 = APPLICATION_CONTEXT ( 'configuration controlled 3d designs of mechanical parts and assemblies' ) ;
#179 = ORIENTED_EDGE ( 'NONE', *, *, #158, .F. ) ;
#180 = PRODUCT_RELATED_PRODUCT_CATEGORY ( 'detail', '', ( #143 ) ) ;
#181 = ORIENTED_EDGE ( 'NONE', *, *, #84, .F. ) ;
#182 = CARTESIAN_POINT ( 'NONE',  ( -1.843888351771962400, 1.220614474678271000, -0.2575388198975657700 ) ) ;
#183 = APPROVAL_PERSON_ORGANIZATION ( #265, #22, #225 ) ;
#184 = ORIENTED_EDGE ( 'NONE', *, *, #12, .F. ) ;
#185 = CARTESIAN_POINT ( 'NONE',  ( -1.836928639370388300, 1.220614474678271000, -0.2575388198975657700 ) ) ;
#186 = DIRECTION ( 'NONE',  ( -0.0000000000000000000, -0.0000000000000000000, -1.000000000000000000 ) ) ;
#187 = APPROVAL_PERSON_ORGANIZATION ( #198, #194, #89 ) ;
#188 = CIRCLE ( 'NONE', #242, 0.9842519685039370400 ) ;
#189 = CARTESIAN_POINT ( 'NONE',  ( 0.0000000000000000000, 0.0000000000000000000, 0.0000000000000000000 ) ) ;
#190 = AXIS2_PLACEMENT_3D ( 'NONE', #235, #63, #253 ) ;
#191 = ADVANCED_FACE ( 'NONE', ( #72 ), #114, .T. ) ;
#192 = CARTESIAN_POINT ( 'NONE',  ( -0.8596363832680253800, 1.220614474678271000, -0.4937592923385106800 ) ) ;
#193 = MANIFOLD_SOLID_BREP ( '83977410-1-solid1', #138 ) ;
#194 = APPROVAL ( #134, 'UNSPECIFIED' ) ;
#195 = ORIENTED_EDGE ( 'NONE', *, *, #172, .F. ) ;
#196 = EDGE_CURVE ( 'NONE', #230, #87, #105, .T. ) ;
#197 = COORDINATED_UNIVERSAL_TIME_OFFSET ( 5, 0, .BEHIND. ) ;
#198 = PERSON_AND_ORGANIZATION ( #210, #131 ) ;
#199 = PRODUCT_DEFINITION_SHAPE ( 'NONE', 'NONE',  #14 ) ;
#200 = LINE ( 'NONE', #182, #166 ) ;
#201 = APPROVAL_PERSON_ORGANIZATION ( #28, #177, #108 ) ;
#202 = VERTEX_POINT ( 'NONE', #98 ) ;
#203 = PERSON_AND_ORGANIZATION_ROLE ( 'design_supplier' ) ;
#204 = AXIS2_PLACEMENT_3D ( 'NONE', #82, #99, #121 ) ;
#205 = PERSON_AND_ORGANIZATION ( #210, #131 ) ;
#206 = ORIENTED_EDGE ( 'NONE', *, *, #12, .T. ) ;
#207 = AXIS2_PLACEMENT_3D ( 'NONE', #192, #17, #251 ) ;
#208 = CARTESIAN_POINT ( 'NONE',  ( 0.1176558728343366600, 1.220614474678271000, -0.4937592923385106800 ) ) ;
#209 = FACE_OUTER_BOUND ( 'NONE', #218, .T. ) ;
#210 = PERSON ( 'UNSPECIFIED', 'UNSPECIFIED', 'UNSPECIFIED', ('UNSPECIFIED'), ('UNSPECIFIED'), ('UNSPECIFIED') ) ;
#211 = ORIENTED_EDGE ( 'NONE', *, *, #123, .T. ) ;
#212 = CARTESIAN_POINT ( 'NONE',  ( -1.843888351771962400, 1.220614474678271000, -0.4867995799369356800 ) ) ;
#213 = CARTESIAN_POINT ( 'NONE',  ( -1.836928639370387400, 1.220614474678271000, -0.4937592923385106800 ) ) ;
#214 = AXIS2_PLACEMENT_3D ( 'NONE', #120, #74, #77 ) ;
#215 = CARTESIAN_POINT ( 'NONE',  ( -0.8596363832680253800, 1.220614474678271000, -0.4867995799369356800 ) ) ;
#216 = DIRECTION ( 'NONE',  ( 0.0000000000000000000, 0.0000000000000000000, 1.000000000000000000 ) ) ;
#217 = CIRCLE ( 'NONE', #10, 0.9772922561023620300 ) ;
#218 = EDGE_LOOP ( 'NONE', ( #255, #195, #263, #170 ) ) ;
#219 = DIRECTION ( 'NONE',  ( 1.000000000000000000, 0.0000000000000000000, 0.0000000000000000000 ) ) ;
#220 = AXIS2_PLACEMENT_3D ( 'NONE', #189, #167, #91 ) ;
#221 = FACE_OUTER_BOUND ( 'NONE', #234, .T. ) ;
#222 = ORIENTED_EDGE ( 'NONE', *, *, #158, .T. ) ;
#223 = CC_DESIGN_DATE_AND_TIME_ASSIGNMENT ( #155, #137, ( #92 ) ) ;
#224 = AXIS2_PLACEMENT_3D ( 'NONE', #64, #274, #219 ) ;
#225 = APPROVAL_ROLE ( '' ) ;
#226 = DATE_AND_TIME ( #100, #5 ) ;
#227 = CARTESIAN_POINT ( 'NONE',  ( -0.8596363832680253800, 1.220614474678271000, -0.4937592923385106800 ) ) ;
#228 = CARTESIAN_POINT ( 'NONE',  ( 0.1246155852359116800, 1.220614474678271000, -0.4867995799369356800 ) ) ;
#229 = PERSON_AND_ORGANIZATION ( #210, #131 ) ;
#230 = VERTEX_POINT ( 'NONE', #237 ) ;
#231 = CC_DESIGN_PERSON_AND_ORGANIZATION_ASSIGNMENT ( #205, #23, ( #143 ) ) ;
#232 = CARTESIAN_POINT ( 'NONE',  ( -0.8596363832680253800, 1.220614474678271000, -0.4937592923385106800 ) ) ;
#233 = CARTESIAN_POINT ( 'NONE',  ( -0.8596363832680253800, 1.220614474678271000, -0.2575388198975657700 ) ) ;
#234 = EDGE_LOOP ( 'NONE', ( #4, #269, #106, #119 ) ) ;
#235 = CARTESIAN_POINT ( 'NONE',  ( -0.8596363832680253800, 1.220614474678271000, -0.2575388198975657700 ) ) ;
#236 = CC_DESIGN_SECURITY_CLASSIFICATION ( #92, ( #175 ) ) ;
#237 = CARTESIAN_POINT ( 'NONE',  ( 0.1176558728343374800, 1.220614474678271000, -0.2575388198975657700 ) ) ;
#238 =( GEOMETRIC_REPRESENTATION_CONTEXT ( 3 ) GLOBAL_UNCERTAINTY_ASSIGNED_CONTEXT ( ( #112 ) ) GLOBAL_UNIT_ASSIGNED_CONTEXT ( ( #45, #52, #139 ) ) REPRESENTATION_CONTEXT ( 'NONE', 'WORKASPACE' ) );
#239 = FACE_OUTER_BOUND ( 'NONE', #147, .T. ) ;
#240 = EDGE_LOOP ( 'NONE', ( #15, #136, #179, #184 ) ) ;
#241 = COORDINATED_UNIVERSAL_TIME_OFFSET ( 5, 0, .BEHIND. ) ;
#242 = AXIS2_PLACEMENT_3D ( 'NONE', #267, #7, #161 ) ;
#243 = CALENDAR_DATE ( 2018, 19, 7 ) ;
#244 = CIRCLE ( 'NONE', #204, 0.9842519685039370400 ) ;
#245 = DIRECTION ( 'NONE',  ( -0.0000000000000000000, -0.0000000000000000000, -1.000000000000000000 ) ) ;
#246 = MECHANICAL_CONTEXT ( 'NONE', #264, 'mechanical' ) ;
#247 = VECTOR ( 'NONE', #248, 39.37007874015748100 ) ;
#248 = DIRECTION ( 'NONE',  ( -0.7071067811865475700, 8.659560562354931600E-017, 0.7071067811865474600 ) ) ;
#249 = CARTESIAN_POINT ( 'NONE',  ( -1.843888351771962400, 1.220614474678271000, -0.4867995799369356800 ) ) ;
#250 = AXIS2_PLACEMENT_3D ( 'NONE', #11, #254, #57 ) ;
#251 = DIRECTION ( 'NONE',  ( 1.000000000000000000, 0.0000000000000000000, 0.0000000000000000000 ) ) ;
#252 = ADVANCED_FACE ( 'NONE', ( #239 ), #174, .T. ) ;
#253 = DIRECTION ( 'NONE',  ( -1.000000000000000000, 0.0000000000000000000, 0.0000000000000000000 ) ) ;
#254 = DIRECTION ( 'NONE',  ( -0.0000000000000000000, -0.0000000000000000000, 1.000000000000000000 ) ) ;
#255 = ORIENTED_EDGE ( 'NONE', *, *, #142, .F. ) ;
#256 = LOCAL_TIME ( 9, 1, 45.00000000000000000, #93 ) ;
#257 = LINE ( 'NONE', #79, #141 ) ;
#258 = AXIS2_PLACEMENT_3D ( 'NONE', #54, #30, #97 ) ;
#259 = PERSON_AND_ORGANIZATION_ROLE ( 'classification_officer' ) ;
#260 = SECURITY_CLASSIFICATION_LEVEL ( 'unclassified' ) ;
#261 = COORDINATED_UNIVERSAL_TIME_OFFSET ( 5, 0, .BEHIND. ) ;
#262 = AXIS2_PLACEMENT_3D ( 'NONE', #83, #186, #165 ) ;
#263 = ORIENTED_EDGE ( 'NONE', *, *, #58, .T. ) ;
#264 = APPLICATION_CONTEXT ( 'configuration controlled 3d designs of mechanical parts and assemblies' ) ;
#265 = PERSON_AND_ORGANIZATION ( #210, #131 ) ;
#266 = LINE ( 'NONE', #212, #247 ) ;
#267 = CARTESIAN_POINT ( 'NONE',  ( -0.8596363832680253800, 1.220614474678271000, -0.2644985322991401100 ) ) ;
#268 = ADVANCED_FACE ( 'NONE', ( #6 ), #150, .T. ) ;
#269 = ORIENTED_EDGE ( 'NONE', *, *, #142, .T. ) ;
#270 = CARTESIAN_POINT ( 'NONE',  ( -0.8596363832680253800, 1.220614474678271000, -0.2575388198975657700 ) ) ;
#271 = PLANE ( 'NONE',  #32 ) ;
#272 = ADVANCED_FACE ( 'NONE', ( #29 ), #271, .T. ) ;
#273 = DIRECTION ( 'NONE',  ( 1.000000000000000000, 0.0000000000000000000, 0.0000000000000000000 ) ) ;
#274 = DIRECTION ( 'NONE',  ( 0.0000000000000000000, 0.0000000000000000000, 1.000000000000000000 ) ) ;
#275 = AXIS2_PLACEMENT_3D ( 'NONE', #270, #61, #38 ) ;
#276 = AXIS2_PLACEMENT_3D ( 'NONE', #227, #56, #117 ) ;
#277 = ORIENTED_EDGE ( 'NONE', *, *, #84, .T. ) ;
#278 = AXIS2_PLACEMENT_3D ( 'NONE', #33, #40, #273 ) ;
ENDSEC;
END-ISO-10303-21;
